  0
SECTION
  2
HEADER
  9
$ACADVER
  1
AC1032
  9
$ACADMAINTVER
 90
        5
  9
$DWGCODEPAGE
  3
ANSI_932
  9
$REQUIREDVERSIONS
160
                 0
  9
$INSBASE
 10
0.0
 20
0.0
 30
0.0
  9
$EXTMIN
 10
0.0
 20
0.0
 30
0.0
  9
$EXTMAX
 10
420.0
 20
297.0
 30
0.0
  9
$LIMMIN
 10
0.0
 20
0.0
  9
$LIMMAX
 10
420.0
 20
297.0
  9
$ORTHOMODE
 70
     0
  9
$REGENMODE
 70
     1
  9
$FILLMODE
 70
     1
  9
$QTEXTMODE
 70
     0
  9
$MIRRTEXT
 70
     0
  9
$LTSCALE
 40
1.0
  9
$ATTMODE
 70
     1
  9
$TEXTSIZE
 40
0.2
  9
$TRACEWID
 40
0.05
  9
$TEXTSTYLE
  7
STANDARD
  9
$CLAYER
  8
0
  9
$CELTYPE
  6
CONTINUOUS
  9
$CECOLOR
 62
   256
  9
$CELTSCALE
 40
1.0
  9
$DISPSILH
 70
     0
  9
$DIMSCALE
 40
1.0
  9
$DIMASZ
 40
0.18
  9
$DIMEXO
 40
0.0625
  9
$DIMDLI
 40
0.38
  9
$DIMRND
 40
0.0
  9
$DIMDLE
 40
0.0
  9
$DIMEXE
 40
0.18
  9
$DIMTP
 40
0.0
  9
$DIMTM
 40
0.0
  9
$DIMTXT
 40
0.18
  9
$DIMCEN
 40
0.09
  9
$DIMTSZ
 40
0.0
  9
$DIMTOL
 70
     0
  9
$DIMLIM
 70
     0
  9
$DIMTIH
 70
     1
  9
$DIMTOH
 70
     1
  9
$DIMSE1
 70
     0
  9
$DIMSE2
 70
     0
  9
$DIMTAD
 70
     0
  9
$DIMZIN
 70
     0
  9
$DIMBLK
  1

  9
$DIMASO
 70
     1
  9
$DIMSHO
 70
     1
  9
$DIMPOST
  1

  9
$DIMAPOST
  1

  9
$DIMALT
 70
     0
  9
$DIMALTD
 70
     2
  9
$DIMALTF
 40
25.4
  9
$DIMLFAC
 40
1.0
  9
$DIMTOFL
 70
     0
  9
$DIMTVP
 40
0.0
  9
$DIMTIX
 70
     0
  9
$DIMSOXD
 70
     0
  9
$DIMSAH
 70
     0
  9
$DIMBLK1
  1

  9
$DIMBLK2
  1

  9
$DIMSTYLE
  2
Standard
  9
$DIMCLRD
 70
     0
  9
$DIMCLRE
 70
     0
  9
$DIMCLRT
 70
     0
  9
$DIMTFAC
 40
1.0
  9
$DIMGAP
 40
0.09
  9
$DIMJUST
 70
     0
  9
$DIMSD1
 70
     0
  9
$DIMSD2
 70
     0
  9
$DIMTOLJ
 70
     1
  9
$DIMTZIN
 70
     0
  9
$DIMALTZ
 70
     0
  9
$DIMALTTZ
 70
     0
  9
$DIMUPT
 70
     0
  9
$DIMDEC
 70
     4
  9
$DIMTDEC
 70
     4
  9
$DIMALTU
 70
     2
  9
$DIMALTTD
 70
     2
  9
$DIMTXSTY
  7
STANDARD
  9
$DIMAUNIT
 70
     0
  9
$DIMADEC
 70
     0
  9
$DIMALTRND
 40
0.0
  9
$DIMAZIN
 70
     0
  9
$DIMDSEP
 70
    46
  9
$DIMATFIT
 70
     3
  9
$DIMFRAC
 70
     0
  9
$DIMLDRBLK
  1

  9
$DIMLUNIT
 70
     2
  9
$DIMLWD
 70
    -2
  9
$DIMLWE
 70
    -2
  9
$DIMTMOVE
 70
     0
  9
$DIMFXL
 40
1.0
  9
$DIMFXLON
 70
     0
  9
$DIMJOGANG
 40
0.7853981633974483
  9
$DIMTFILL
 70
     0
  9
$DIMTFILLCLR
 70
     0
  9
$DIMARCSYM
 70
     0
  9
$DIMLTYPE
  6

  9
$DIMLTEX1
  6

  9
$DIMLTEX2
  6

  9
$DIMTXTDIRECTION
 70
     0
  9
$LUNITS
 70
     2
  9
$LUPREC
 70
     4
  9
$SKETCHINC
 40
0.1
  9
$FILLETRAD
 40
0.0
  9
$AUNITS
 70
     0
  9
$AUPREC
 70
     0
  9
$MENU
  1
.
  9
$ELEVATION
 40
0.0
  9
$PELEVATION
 40
0.0
  9
$THICKNESS
 40
0.0
  9
$LIMCHECK
 70
     0
  9
$CHAMFERA
 40
0.0
  9
$CHAMFERB
 40
0.0
  9
$CHAMFERC
 40
0.0
  9
$CHAMFERD
 40
0.0
  9
$SKPOLY
 70
     0
  9
$TDCREATE
 40
2459367.484907407
  9
$TDUCREATE
 40
2459367.109907407
  9
$TDUPDATE
 40
2459367.484907407
  9
$TDUUPDATE
 40
2459367.109907407
  9
$TDINDWG
 40
0.0000000000
  9
$TDUSRTIMER
 40
0.0000000000
  9
$USRTIMER
 70
     1
  9
$ANGBASE
 50
0.0
  9
$ANGDIR
 70
     0
  9
$PDMODE
 70
     0
  9
$PDSIZE
 40
0.0
  9
$PLINEWID
 40
0.0
  9
$SPLFRAME
 70
     0
  9
$SPLINETYPE
 70
     6
  9
$SPLINESEGS
 70
     8
  9
$HANDSEED
  5
1F8
  9
$SURFTAB1
 70
     6
  9
$SURFTAB2
 70
     6
  9
$SURFTYPE
 70
     6
  9
$SURFU
 70
     6
  9
$SURFV
 70
     6
  9
$UCSBASE
  2

  9
$UCSNAME
  2

  9
$UCSORG
 10
0.0
 20
0.0
 30
0.0
  9
$UCSXDIR
 10
1.0
 20
0.0
 30
0.0
  9
$UCSYDIR
 10
0.0
 20
1.0
 30
0.0
  9
$UCSORTHOREF
  2

  9
$UCSORTHOVIEW
 70
     0
  9
$UCSORGTOP
 10
0.0
 20
0.0
 30
0.0
  9
$UCSORGBOTTOM
 10
0.0
 20
0.0
 30
0.0
  9
$UCSORGLEFT
 10
0.0
 20
0.0
 30
0.0
  9
$UCSORGRIGHT
 10
0.0
 20
0.0
 30
0.0
  9
$UCSORGFRONT
 10
0.0
 20
0.0
 30
0.0
  9
$UCSORGBACK
 10
0.0
 20
0.0
 30
0.0
  9
$PUCSBASE
  2

  9
$PUCSNAME
  2

  9
$PUCSORG
 10
0.0
 20
0.0
 30
0.0
  9
$PUCSXDIR
 10
1.0
 20
0.0
 30
0.0
  9
$PUCSYDIR
 10
0.0
 20
1.0
 30
0.0
  9
$PUCSORTHOREF
  2

  9
$PUCSORTHOVIEW
 70
     0
  9
$PUCSORGTOP
 10
0.0
 20
0.0
 30
0.0
  9
$PUCSORGBOTTOM
 10
0.0
 20
0.0
 30
0.0
  9
$PUCSORGLEFT
 10
0.0
 20
0.0
 30
0.0
  9
$PUCSORGRIGHT
 10
0.0
 20
0.0
 30
0.0
  9
$PUCSORGFRONT
 10
0.0
 20
0.0
 30
0.0
  9
$PUCSORGBACK
 10
0.0
 20
0.0
 30
0.0
  9
$USERI1
 70
     0
  9
$USERI2
 70
     0
  9
$USERI3
 70
     0
  9
$USERI4
 70
     0
  9
$USERI5
 70
     0
  9
$USERR1
 40
0.0
  9
$USERR2
 40
0.0
  9
$USERR3
 40
0.0
  9
$USERR4
 40
0.0
  9
$USERR5
 40
0.0
  9
$WORLDVIEW
 70
     1
  9
$SHADEDGE
 70
     3
  9
$SHADEDIF
 70
    70
  9
$TILEMODE
 70
     1
  9
$MAXACTVP
 70
    64
  9
$PINSBASE
 10
0.0
 20
0.0
 30
0.0
  9
$PLIMCHECK
 70
     0
  9
$PEXTMIN
 10
1.000000000000000E+20
 20
1.000000000000000E+20
 30
1.000000000000000E+20
  9
$PEXTMAX
 10
-1.000000000000000E+20
 20
-1.000000000000000E+20
 30
-1.000000000000000E+20
  9
$PLIMMIN
 10
0.0
 20
0.0
  9
$PLIMMAX
 10
12.0
 20
9.0
  9
$UNITMODE
 70
     0
  9
$VISRETAIN
 70
     1
  9
$PLINEGEN
 70
     0
  9
$PSLTSCALE
 70
     1
  9
$TREEDEPTH
 70
  3020
  9
$CMLSTYLE
  2
Standard
  9
$CMLJUST
 70
     0
  9
$CMLSCALE
 40
1.0
  9
$PROXYGRAPHICS
 70
     1
  9
$MEASUREMENT
 70
     0
  9
$CELWEIGHT
370
    -1
  9
$ENDCAPS
280
     0
  9
$JOINSTYLE
280
     0
  9
$LWDISPLAY
290
     0
  9
$INSUNITS
 70
     0
  9
$HYPERLINKBASE
  1

  9
$STYLESHEET
  1

  9
$XEDIT
290
     1
  9
$CEPSNTYPE
380
     0
  9
$PSTYLEMODE
290
     1
  9
$FINGERPRINTGUID
  2
{3D24B4FB-A43F-424A-B714-D19F56CAA0C4}
  9
$VERSIONGUID
  2
{523D1BE7-080E-C843-B316-773E4DBCB68E}
  9
$EXTNAMES
290
     1
  9
$PSVPSCALE
 40
0.0
  9
$OLESTARTUP
290
     0
  9
$SORTENTS
280
   127
  9
$INDEXCTL
280
     0
  9
$HIDETEXT
280
     0
  9
$XCLIPFRAME
280
     2
  9
$HALOGAP
280
     0
  9
$OBSCOLOR
 70
   257
  9
$OBSLTYPE
280
     0
  9
$INTERSECTIONDISPLAY
280
     0
  9
$INTERSECTIONCOLOR
 70
   257
  9
$DIMASSOC
280
     1
  9
$PROJECTNAME
  1

  9
$CAMERADISPLAY
290
     0
  9
$LENSLENGTH
 40
50.0
  9
$CAMERAHEIGHT
 40
0.0
  9
$STEPSPERSEC
 40
2.0
  9
$STEPSIZE
 40
6.0
  9
$3DDWFPREC
 40
2.0
  9
$PSOLWIDTH
 40
0.25
  9
$PSOLHEIGHT
 40
4.0
  9
$LOFTANG1
 40
1.570796326794896
  9
$LOFTANG2
 40
1.570796326794896
  9
$LOFTMAG1
 40
0.0
  9
$LOFTMAG2
 40
0.0
  9
$LOFTPARAM
 70
     7
  9
$LOFTNORMALS
280
     1
  9
$LATITUDE
 40
37.795
  9
$LONGITUDE
 40
-122.394
  9
$NORTHDIRECTION
 40
0.0
  9
$TIMEZONE
 70
 -8000
  9
$LIGHTGLYPHDISPLAY
280
     1
  9
$TILEMODELIGHTSYNCH
280
     1
  9
$CMATERIAL
347
11
  9
$SOLIDHIST
280
     0
  9
$SHOWHIST
280
     1
  9
$DWFFRAME
280
     2
  9
$DGNFRAME
280
     0
  9
$REALWORLDSCALE
290
     1
  9
$INTERFERECOLOR
 62
     1
  9
$INTERFEREOBJVS
345
33
  9
$INTERFEREVPVS
346
30
  9
$CSHADOW
280
     0
  9
$SHADOWPLANELOCATION
 40
0.0
  0
ENDSEC
  0
SECTION
  2
CLASSES
  0
CLASS
  1
ACDBDICTIONARYWDFLT
  2
AcDbDictionaryWithDefault
  3
ObjectDBX Classes
 90
        0
 91
        1
280
     0
281
     0
  0
CLASS
  1
MATERIAL
  2
AcDbMaterial
  3
ObjectDBX Classes
 90
     1153
 91
        3
280
     0
281
     0
  0
CLASS
  1
VISUALSTYLE
  2
AcDbVisualStyle
  3
ObjectDBX Classes
 90
     4095
 91
       24
280
     0
281
     0
  0
CLASS
  1
SCALE
  2
AcDbScale
  3
ObjectDBX Classes
 90
     1153
 91
       17
280
     0
281
     0
  0
CLASS
  1
TABLESTYLE
  2
AcDbTableStyle
  3
ObjectDBX Classes
 90
     4095
 91
        1
280
     0
281
     0
  0
CLASS
  1
MLEADERSTYLE
  2
AcDbMLeaderStyle
  3
ACDB_MLEADERSTYLE_CLASS
 90
     4095
 91
        1
280
     0
281
     0
  0
CLASS
  1
ACDBSECTIONVIEWSTYLE
  2
AcDbSectionViewStyle
  3
ObjectDBX Classes
 90
     1025
 91
        1
280
     0
281
     0
  0
CLASS
  1
ACDBDETAILVIEWSTYLE
  2
AcDbDetailViewStyle
  3
ObjectDBX Classes
 90
     1025
 91
        1
280
     0
281
     0
  0
CLASS
  1
DICTIONARYVAR
  2
AcDbDictionaryVar
  3
ObjectDBX Classes
 90
        0
 91
        9
280
     0
281
     0
  0
CLASS
  1
CELLSTYLEMAP
  2
AcDbCellStyleMap
  3
ObjectDBX Classes
 90
     1152
 91
        1
280
     0
281
     0
  0
ENDSEC
  0
SECTION
  2
TABLES
  0
TABLE
  2
VPORT
  5
8
330
0
100
AcDbSymbolTable
 70
     1
  0
VPORT
  5
A4
330
8
100
AcDbSymbolTableRecord
100
AcDbViewportTableRecord
  2
*Active
 70
     0
 10
0.0
 20
0.0
 11
1.0
 21
1.0
 12
500.0
 22
500.0
 13
0.0
 23
0.0
 14
1.0
 24
1.0
 15
0.0
 25
0.0
 16
0.0
 26
0.0
 36
1.0
 17
0.0
 27
0.0
 37
0.0
 40
12.0
 41
1.0
 42
50.0
 43
0.0
 44
0.0
 50
0.0
 51
0.0
 71
     0
 72
   100
 73
     1
 74
     1
 75
     0
 76
     0
 77
     0
 78
     0
281
     0
 65
     1
110
0.0
120
0.0
130
0.0
111
1.0
121
0.0
131
0.0
112
0.0
122
1.0
132
0.0
 79
     0
146
0.0
348
2F
 60
     3
 61
     5
292
     1
282
     1
141
0.0
142
0.0
 63
   250
421
  3355443
  0
ENDTAB
  0
TABLE
  2
LTYPE
  5
5
330
0
100
AcDbSymbolTable
 70
    35
  0
LTYPE
  5
5A
330
5
100
AcDbSymbolTableRecord
100
AcDbLinetypeTableRecord
  2
ByBlock
 70
     0
  3

 72
    65
 73
     0
 40
0.0
  0
LTYPE
  5
5B
330
5
100
AcDbSymbolTableRecord
100
AcDbLinetypeTableRecord
  2
ByLayer
 70
     0
  3

 72
    65
 73
     0
 40
0.0
  0
LTYPE
  5
5C
330
5
100
AcDbSymbolTableRecord
100
AcDbLinetypeTableRecord
  2
CONTINUOUS
 70
     0
  3
実線
 72
    65
 73
     0
 40
0.0
  0
LTYPE
  5
73
330
5
100
AcDbSymbolTableRecord
100
AcDbLinetypeTableRecord
  2
DASHED1
 70
     0
  3
--  --  --  --  --  --  --  --  
 72
    65
 73
     2
 40
2.5
 49
1.25
 74
     0
 49
-1.25
 74
     0
  0
LTYPE
  5
74
330
5
100
AcDbSymbolTableRecord
100
AcDbLinetypeTableRecord
  2
DASHED2
 70
     0
  3
----    ----    ----    ----    
 72
    65
 73
     2
 40
5.0
 49
2.5
 74
     0
 49
-2.5
 74
     0
  0
LTYPE
  5
75
330
5
100
AcDbSymbolTableRecord
100
AcDbLinetypeTableRecord
  2
DASHED3
 70
     0
  3
------  ------  ------  ------  
 72
    65
 73
     2
 40
5.0
 49
3.75
 74
     0
 49
-1.25
 74
     0
  0
LTYPE
  5
76
330
5
100
AcDbSymbolTableRecord
100
AcDbLinetypeTableRecord
  2
CENTER1
 70
     0
  3
----- - ----- - ----- - ----- - 
 72
    65
 73
     4
 40
10.0
 49
6.25
 74
     0
 49
-1.25
 74
     0
 49
1.25
 74
     0
 49
-1.25
 74
     0
  0
LTYPE
  5
77
330
5
100
AcDbSymbolTableRecord
100
AcDbLinetypeTableRecord
  2
CENTER2
 70
     0
  3
----------  --  ----------  --  
 72
    65
 73
     4
 40
20.0
 49
12.5
 74
     0
 49
-2.5
 74
     0
 49
2.5
 74
     0
 49
-2.5
 74
     0
  0
LTYPE
  5
78
330
5
100
AcDbSymbolTableRecord
100
AcDbLinetypeTableRecord
  2
PHANTOM1
 70
     0
  3
--- - - --- - - --- - - --- - - 
 72
    65
 73
     6
 40
10.0
 49
3.25
 74
     0
 49
-1.25
 74
     0
 49
1.25
 74
     0
 49
-1.25
 74
     0
 49
1.25
 74
     0
 49
-1.25
 74
     0
  0
LTYPE
  5
79
330
5
100
AcDbSymbolTableRecord
100
AcDbLinetypeTableRecord
  2
PHANTOM2
 70
     0
  3
--------  -  -  --------  -  -  
 72
    65
 73
     6
 40
20.0
 49
10.0
 74
     0
 49
-2.5
 74
     0
 49
1.25
 74
     0
 49
-2.5
 74
     0
 49
1.25
 74
     0
 49
-2.5
 74
     0
  0
LTYPE
  5
7A
330
5
100
AcDbSymbolTableRecord
100
AcDbLinetypeTableRecord
  2
DOT
 70
     0
  3
-   -   -   -   -   -   -   -   
 72
    65
 73
     2
 40
2.5
 49
0.625
 74
     0
 49
-1.875
 74
     0
  0
LTYPE
  5
7B
330
5
100
AcDbSymbolTableRecord
100
AcDbLinetypeTableRecord
  2
DUMMY
 70
     0
  3
ダミー
 72
    65
 73
     0
 40
0.0
  0
LTYPE
  5
7C
330
5
100
AcDbSymbolTableRecord
100
AcDbLinetypeTableRecord
  2
RAND1
 70
     0
  3
ランダム線1
 72
    65
 73
     4
 40
10.0
 49
1.0
 74
     0
 49
-2.0
 74
     0
 49
3.0
 74
     0
 49
-4.0
 74
     0
  0
LTYPE
  5
7D
330
5
100
AcDbSymbolTableRecord
100
AcDbLinetypeTableRecord
  2
RAND2
 70
     0
  3
ランダム線2
 72
    65
 73
     4
 40
14.0
 49
2.0
 74
     0
 49
-3.0
 74
     0
 49
4.0
 74
     0
 49
-5.0
 74
     0
  0
LTYPE
  5
7E
330
5
100
AcDbSymbolTableRecord
100
AcDbLinetypeTableRecord
  2
RAND3
 70
     0
  3
ランダム線3
 72
    65
 73
     4
 40
18.0
 49
3.0
 74
     0
 49
-4.0
 74
     0
 49
5.0
 74
     0
 49
-6.0
 74
     0
  0
LTYPE
  5
7F
330
5
100
AcDbSymbolTableRecord
100
AcDbLinetypeTableRecord
  2
RAND4
 70
     0
  3
ランダム線4
 72
    65
 73
     4
 40
22.0
 49
4.0
 74
     0
 49
-5.0
 74
     0
 49
6.0
 74
     0
 49
-7.0
 74
     0
  0
LTYPE
  5
80
330
5
100
AcDbSymbolTableRecord
100
AcDbLinetypeTableRecord
  2
RAND5
 70
     0
  3
ランダム線5
 72
    65
 73
     4
 40
26.0
 49
5.0
 74
     0
 49
-6.0
 74
     0
 49
7.0
 74
     0
 49
-8.0
 74
     0
  0
LTYPE
  5
81
330
5
100
AcDbSymbolTableRecord
100
AcDbLinetypeTableRecord
  2
LONG1
 70
     0
  3
----------  --  ----------  --  
 72
    65
 73
     4
 40
40.0
 49
32.5
 74
     0
 49
-2.5
 74
     0
 49
2.5
 74
     0
 49
-2.5
 74
     0
  0
LTYPE
  5
82
330
5
100
AcDbSymbolTableRecord
100
AcDbLinetypeTableRecord
  2
LONG2
 70
     0
  3
--------  -  -  --------  -  -  
 72
    65
 73
     6
 40
40.0
 49
30.0
 74
     0
 49
-2.5
 74
     0
 49
1.25
 74
     0
 49
-2.5
 74
     0
 49
1.25
 74
     0
 49
-2.5
 74
     0
  0
LTYPE
  5
83
330
5
100
AcDbSymbolTableRecord
100
AcDbLinetypeTableRecord
  2
LONG3
 70
     0
  3
+++++++++++++++..+++++++++++++++
 72
    65
 73
     2
 40
40.0
 49
37.5
 74
     0
 49
-2.5
 74
     0
  0
LTYPE
  5
84
330
5
100
AcDbSymbolTableRecord
100
AcDbLinetypeTableRecord
  2
LONG4
 70
     0
  3
+++++++++++++++..+++++++++++++++
 72
    65
 73
     2
 40
80.0
 49
75.0
 74
     0
 49
-5.0
 74
     0
  0
LTYPE
  5
85
330
5
100
AcDbSymbolTableRecord
100
AcDbLinetypeTableRecord
  2
LONG5
 70
     0
  3
----------  --  ----------  --  
 72
    65
 73
     4
 40
60.0
 49
37.5
 74
     0
 49
-7.5
 74
     0
 49
7.5
 74
     0
 49
-7.5
 74
     0
  0
LTYPE
  5
86
330
5
100
AcDbSymbolTableRecord
100
AcDbLinetypeTableRecord
  2
DASHED
 70
     0
  3
-------   -------------   ------
 72
    65
 73
     2
 40
7.5
 49
6.0
 74
     0
 49
-1.5
 74
     0
  0
LTYPE
  5
87
330
5
100
AcDbSymbolTableRecord
100
AcDbLinetypeTableRecord
  2
DASHED_SPACED
 70
     0
  3
----        --------        ----
 72
    65
 73
     2
 40
12.0
 49
6.0
 74
     0
 49
-6.0
 74
     0
  0
LTYPE
  5
88
330
5
100
AcDbSymbolTableRecord
100
AcDbLinetypeTableRecord
  2
LONG_DASHED_DOTTED
 70
     0
  3
------------- --- --------------
 72
    65
 73
     4
 40
15.25
 49
12.0
 74
     0
 49
-1.5
 74
     0
 49
0.25
 74
     0
 49
-1.5
 74
     0
  0
LTYPE
  5
89
330
5
100
AcDbSymbolTableRecord
100
AcDbLinetypeTableRecord
  2
LONG_DASHED_DOUBLE-DOTTED
 70
     0
  3
----------- --- --- ------------
 72
    65
 73
     6
 40
17.0
 49
12.0
 74
     0
 49
-1.5
 74
     0
 49
0.25
 74
     0
 49
-1.5
 74
     0
 49
0.25
 74
     0
 49
-1.5
 74
     0
  0
LTYPE
  5
8A
330
5
100
AcDbSymbolTableRecord
100
AcDbLinetypeTableRecord
  2
LONG_DASHED_TRIPLICATE-DOTTED
 70
     0
  3
--------- --- --- --- ----------
 72
    65
 73
     8
 40
18.75
 49
12.0
 74
     0
 49
-1.5
 74
     0
 49
0.25
 74
     0
 49
-1.5
 74
     0
 49
0.25
 74
     0
 49
-1.5
 74
     0
 49
0.25
 74
     0
 49
-1.5
 74
     0
  0
LTYPE
  5
8B
330
5
100
AcDbSymbolTableRecord
100
AcDbLinetypeTableRecord
  2
DOTTED
 70
     0
  3
   -       -       -       -    
 72
    65
 73
     2
 40
1.75
 49
0.25
 74
     0
 49
-1.5
 74
     0
  0
LTYPE
  5
8C
330
5
100
AcDbSymbolTableRecord
100
AcDbLinetypeTableRecord
  2
CHAIN
 70
     0
  3
-------------- -- --------------
 72
    65
 73
     4
 40
18.5
 49
12.0
 74
     0
 49
-1.5
 74
     0
 49
3.5
 74
     0
 49
-1.5
 74
     0
  0
LTYPE
  5
8D
330
5
100
AcDbSymbolTableRecord
100
AcDbLinetypeTableRecord
  2
CHAIN_DOUBLE_DASH
 70
     0
  3
------------ -- -- -------------
 72
    65
 73
     6
 40
23.5
 49
12.0
 74
     0
 49
-1.5
 74
     0
 49
3.5
 74
     0
 49
-1.5
 74
     0
 49
3.5
 74
     0
 49
-1.5
 74
     0
  0
LTYPE
  5
8E
330
5
100
AcDbSymbolTableRecord
100
AcDbLinetypeTableRecord
  2
DASHED_DOTTED
 70
     0
  3
-----------     -     ----------
 72
    65
 73
     4
 40
9.25
 49
6.0
 74
     0
 49
-1.5
 74
     0
 49
0.25
 74
     0
 49
-1.5
 74
     0
  0
LTYPE
  5
8F
330
5
100
AcDbSymbolTableRecord
100
AcDbLinetypeTableRecord
  2
DOUBLE-DASHED_DOTTED
 70
     0
  3
------   -----------   -   -----
 72
    65
 73
     6
 40
16.75
 49
6.0
 74
     0
 49
-1.5
 74
     0
 49
6.0
 74
     0
 49
-1.5
 74
     0
 49
0.25
 74
     0
 49
-1.5
 74
     0
  0
LTYPE
  5
90
330
5
100
AcDbSymbolTableRecord
100
AcDbLinetypeTableRecord
  2
DASHED_DOUBLE-DOTTED
 70
     0
  3
---------    -    -    ---------
 72
    65
 73
     6
 40
11.0
 49
6.0
 74
     0
 49
-1.5
 74
     0
 49
0.25
 74
     0
 49
-1.5
 74
     0
 49
0.25
 74
     0
 49
-1.5
 74
     0
  0
LTYPE
  5
91
330
5
100
AcDbSymbolTableRecord
100
AcDbLinetypeTableRecord
  2
DOUBLE-DASHED_DOUBLE-DOTTED
 70
     0
  3
-----   ---------   -   -   ----
 72
    65
 73
     8
 40
18.5
 49
6.0
 74
     0
 49
-1.5
 74
     0
 49
6.0
 74
     0
 49
-1.5
 74
     0
 49
0.25
 74
     0
 49
-1.5
 74
     0
 49
0.25
 74
     0
 49
-1.5
 74
     0
  0
LTYPE
  5
92
330
5
100
AcDbSymbolTableRecord
100
AcDbLinetypeTableRecord
  2
DASHED_TRIPLICATE-DOTTED
 70
     0
  3
-------    -    -    -    ------
 72
    65
 73
     8
 40
12.75
 49
6.0
 74
     0
 49
-1.5
 74
     0
 49
0.25
 74
     0
 49
-1.5
 74
     0
 49
0.25
 74
     0
 49
-1.5
 74
     0
 49
0.25
 74
     0
 49
-1.5
 74
     0
  0
LTYPE
  5
93
330
5
100
AcDbSymbolTableRecord
100
AcDbLinetypeTableRecord
  2
DOUBLE-DASHED_TRIPLICATE-DOTTED
 70
     0
  3
-----  ---------  -  -  -  -----
 72
    65
 73
    10
 40
20.25
 49
6.0
 74
     0
 49
-1.5
 74
     0
 49
6.0
 74
     0
 49
-1.5
 74
     0
 49
0.25
 74
     0
 49
-1.5
 74
     0
 49
0.25
 74
     0
 49
-1.5
 74
     0
 49
0.25
 74
     0
 49
-1.5
 74
     0
  0
LTYPE
  5
94
330
5
100
AcDbSymbolTableRecord
100
AcDbLinetypeTableRecord
  2
UNDEFINED
 70
     0
  3
--------------------------------
 72
    65
 73
     0
 40
0.0
  0
ENDTAB
  0
TABLE
  2
LAYER
  5
2
330
0
100
AcDbSymbolTable
 70
    15
  0
LAYER
  5
54
330
2
100
AcDbSymbolTableRecord
100
AcDbLayerTableRecord
  2
0
 70
     0
 62
     7
  6
CONTINUOUS
370
    -3
390
F
347
21
348
0
  0
LAYER
  5
96
330
2
100
AcDbSymbolTableRecord
100
AcDbLayerTableRecord
  2
_4-B_予備
 70
     0
 62
     7
  6
CONTINUOUS
370
    -3
390
F
347
21
348
0
  0
LAYER
  5
97
330
2
100
AcDbSymbolTableRecord
100
AcDbLayerTableRecord
  2
_5-0_5-0
 70
     0
 62
     7
  6
CONTINUOUS
370
    -3
390
F
347
21
348
0
  0
LAYER
  5
98
330
2
100
AcDbSymbolTableRecord
100
AcDbLayerTableRecord
  2
_5-4_5-4
 70
     0
 62
     7
  6
CONTINUOUS
370
    -3
390
F
347
21
348
0
  0
LAYER
  5
99
330
2
100
AcDbSymbolTableRecord
100
AcDbLayerTableRecord
  2
_5-6_5-6
 70
     0
 62
     7
  6
CONTINUOUS
370
    -3
390
F
347
21
348
0
  0
LAYER
  5
9A
330
2
100
AcDbSymbolTableRecord
100
AcDbLayerTableRecord
  2
_5-B_5-B
 70
     0
 62
     7
  6
CONTINUOUS
370
    -3
390
F
347
21
348
0
  0
LAYER
  5
9B
330
2
100
AcDbSymbolTableRecord
100
AcDbLayerTableRecord
  2
_5-C_ハッチ
 70
     0
 62
     7
  6
CONTINUOUS
370
    -3
390
F
347
21
348
0
  0
LAYER
  5
9C
330
2
100
AcDbSymbolTableRecord
100
AcDbLayerTableRecord
  2
_5-E_文字
 70
     0
 62
     7
  6
CONTINUOUS
370
    -3
390
F
347
21
348
0
  0
LAYER
  5
9D
330
2
100
AcDbSymbolTableRecord
100
AcDbLayerTableRecord
  2
_5-F_補助線
 70
     0
 62
     7
  6
CONTINUOUS
370
    -3
390
F
347
21
348
0
  0
LAYER
  5
9E
330
2
100
AcDbSymbolTableRecord
100
AcDbLayerTableRecord
  2
_F-0_F-0___
 70
     0
 62
     7
  6
CONTINUOUS
370
    -3
390
F
347
21
348
0
  0
LAYER
  5
9F
330
2
100
AcDbSymbolTableRecord
100
AcDbLayerTableRecord
  2
_F-1_図面枠
 70
     0
 62
     7
  6
CONTINUOUS
370
    -3
390
F
347
21
348
0
  0
LAYER
  5
A0
330
2
100
AcDbSymbolTableRecord
100
AcDbLayerTableRecord
  2
_F-F_補助線
 70
     0
 62
     7
  6
CONTINUOUS
370
    -3
390
F
347
21
348
0
  0
LAYER
  5
A1
330
2
100
AcDbSymbolTableRecord
100
AcDbLayerTableRecord
  2
ADD_LINE
 70
     0
 62
     7
  6
CONTINUOUS
370
    -3
390
F
347
21
348
0
  0
LAYER
  5
A7
330
2
100
AcDbSymbolTableRecord
100
AcDbLayerTableRecord
  2
_4-4_見え掛り
 70
     0
 62
     7
  6
CONTINUOUS
370
    -3
390
F
347
21
348
0
  0
LAYER
  5
AC
330
2
100
AcDbSymbolTableRecord
100
AcDbLayerTableRecord
  2
_4-0_通り心
 70
     0
 62
     7
  6
CONTINUOUS
370
    -3
390
F
347
21
348
0
  0
ENDTAB
  0
TABLE
  2
STYLE
  5
3
330
0
100
AcDbSymbolTable
 70
     3
  0
STYLE
  5
55
330
3
100
AcDbSymbolTableRecord
100
AcDbTextStyleTableRecord
  2
STANDARD
 70
     0
 40
0.0
 41
1.0
 50
0.0
 71
     0
 42
0.2
  3
txt
  4
bigfont.shx
  0
STYLE
  5
59
330
3
100
AcDbSymbolTableRecord
100
AcDbTextStyleTableRecord
  2
Annotative
 70
     0
 40
0.0
 41
1.0
 50
0.0
 71
     0
 42
0.2
  3
txt
  4

1001
AcadAnnotative
1000
AnnotativeData
1002
{
1070
     1
1070
     1
1002
}
  0
STYLE
  5
95
330
3
100
AcDbSymbolTableRecord
100
AcDbTextStyleTableRecord
  2
TATEGAKI
 70
     4
 40
0.0
 41
1.0
 50
0.0
 71
     0
 42
1.0
  3
txt
  4
bigfont.shx
  0
ENDTAB
  0
TABLE
  2
VIEW
  5
6
330
0
100
AcDbSymbolTable
 70
     0
  0
ENDTAB
  0
TABLE
  2
UCS
  5
7
330
0
100
AcDbSymbolTable
 70
     0
  0
ENDTAB
  0
TABLE
  2
APPID
  5
9
330
0
100
AcDbSymbolTable
 70
     2
  0
APPID
  5
56
330
9
100
AcDbSymbolTableRecord
100
AcDbRegAppTableRecord
  2
ACAD
 70
     0
  0
APPID
  5
5D
330
9
100
AcDbSymbolTableRecord
100
AcDbRegAppTableRecord
  2
AcadAnnotative
 70
     0
  0
ENDTAB
  0
TABLE
  2
DIMSTYLE
  5
A
330
0
100
AcDbSymbolTable
 70
     2
100
AcDbDimStyleTable
 71
     0
  0
DIMSTYLE
105
57
330
A
100
AcDbSymbolTableRecord
100
AcDbDimStyleTableRecord
  2
Standard
 70
     0
340
55
  0
DIMSTYLE
105
58
330
A
100
AcDbSymbolTableRecord
100
AcDbDimStyleTableRecord
  2
Annotative
 70
     0
340
55
1001
AcadAnnotative
1000
AnnotativeData
1002
{
1070
     1
1070
     1
1002
}
  0
ENDTAB
  0
TABLE
  2
BLOCK_RECORD
  5
1
330
0
100
AcDbSymbolTable
 70
     1
  0
BLOCK_RECORD
  5
6F
330
1
100
AcDbSymbolTableRecord
100
AcDbBlockTableRecord
  2
*Model_Space
340
72
 70
     0
280
     1
281
     0
  0
BLOCK_RECORD
  5
6B
330
1
100
AcDbSymbolTableRecord
100
AcDbBlockTableRecord
  2
*Paper_Space
340
6E
 70
     0
280
     1
281
     0
  0
BLOCK_RECORD
  5
A5
330
1
100
AcDbSymbolTableRecord
100
AcDbBlockTableRecord
  2
-000-敷地ライン_1_
340
0
102
{BLKREFS
331
C0
102
}
 70
     0
280
     1
281
     0
  0
ENDTAB
  0
ENDSEC
  0
SECTION
  2
BLOCKS
  0
BLOCK
  5
70
330
6F
100
AcDbEntity
  8
0
100
AcDbBlockBegin
  2
*Model_Space
 70
     0
 10
0.0
 20
0.0
 30
0.0
  3
*Model_Space
  1

  0
ENDBLK
  5
71
330
6F
100
AcDbEntity
  8
0
100
AcDbBlockEnd
  0
BLOCK
  5
6C
330
6B
100
AcDbEntity
 67
     1
  8
0
100
AcDbBlockBegin
  2
*Paper_Space
 70
     0
 10
0.0
 20
0.0
 30
0.0
  3
*Paper_Space
  1

  0
ENDBLK
  5
6D
330
6B
100
AcDbEntity
 67
     1
  8
0
100
AcDbBlockEnd
  0
BLOCK
  5
A6
330
A5
100
AcDbEntity
  8
0
100
AcDbBlockBegin
  2
-000-敷地ライン_1_
 70
     0
 10
0.0
 20
0.0
 30
0.0
  3
-000-敷地ライン_1_
  1

  0
LINE
  5
A8
330
A5
100
AcDbEntity
  8
_4-4_見え掛り
  6
Continuous
 62
    18
100
AcDbLine
 10
3.48517583412466
 20
-56.01556168376068
 30
0.0
 11
30.28245874468848
 21
-53.23627931063402
 31
0.0
  0
LINE
  5
A9
330
A5
100
AcDbEntity
  8
_4-4_見え掛り
  6
Continuous
 62
    18
100
AcDbLine
 10
-36.83585483562814
 20
-59.54394672411794
 30
0.0
 11
3.462686291762821
 21
-56.02013820024544
 31
0.0
  0
LINE
  5
AA
330
A5
100
AcDbEntity
  8
_4-4_見え掛り
  6
Continuous
 62
    18
100
AcDbLine
 10
56.69134935533648
 20
-24.02782028220845
 30
0.0
 11
46.30684334226424
 21
-42.01431230835407
 31
0.0
  0
LINE
  5
AB
330
A5
100
AcDbEntity
  8
_4-4_見え掛り
  6
Continuous
 62
    18
100
AcDbLine
 10
46.30684334226424
 20
-42.01431230835407
 30
0.0
 11
45.53973243230996
 21
-43.34298737943529
 31
0.0
  0
LINE
  5
AD
330
A5
100
AcDbEntity
  8
_4-0_通り心
  6
CENTER2
 62
    18
100
AcDbLine
 10
-78.57805855394264
 20
93.8796783310444
 30
0.0
 11
26.42194144605736
 21
93.8796783310444
 31
0.0
  0
LINE
  5
AE
330
A5
100
AcDbEntity
  8
_4-0_通り心
  6
CENTER2
 62
    18
100
AcDbLine
 10
-78.57805855394264
 20
93.8796783310444
 30
0.0
 11
-78.57805855394264
 21
-41.12032166895558
 31
0.0
  0
ARC
  5
AF
330
A5
100
AcDbEntity
  8
_4-4_見え掛り
  6
Continuous
 62
    18
100
AcDbCircle
 10
26.26669561130317
 20
-30.33182934857595
 30
0.0
 40
23.25382079590103
100
AcDbArc
 50
279.944410464449
 51
325.9768551955642
  0
ARC
  5
B0
330
A5
100
AcDbEntity
  8
_4-4_見え掛り
  6
Continuous
 62
    18
100
AcDbCircle
 10
15.8662183966594
 20
-9.212156629229383
 30
0.0
 40
43.43034891952099
100
AcDbArc
 50
340.0538881290293
 51
356.7888852836016
  0
CIRCLE
  5
B1
330
A5
100
AcDbEntity
  8
_4-4_見え掛り
  6
Continuous
 62
    18
100
AcDbCircle
 10
26.42194144605736
 20
93.8796783310444
 30
0.0
 40
1.0
  0
CIRCLE
  5
B2
330
A5
100
AcDbEntity
  8
_4-4_見え掛り
  6
Continuous
 62
    18
100
AcDbCircle
 10
-78.57805855394264
 20
93.8796783310444
 30
0.0
 40
1.0
  0
CIRCLE
  5
B3
330
A5
100
AcDbEntity
  8
_4-4_見え掛り
  6
Continuous
 62
    18
100
AcDbCircle
 10
-78.57805855394264
 20
-41.12032166895558
 30
0.0
 40
1.0
  0
CIRCLE
  5
B4
330
A5
100
AcDbEntity
  8
_4-4_見え掛り
  6
Continuous
 62
    18
100
AcDbCircle
 10
28.2192243566212
 20
-33.34298737943529
 30
0.0
 40
1.0
  0
CIRCLE
  5
B5
330
A5
100
AcDbEntity
  8
_4-4_見え掛り
  6
Continuous
 62
    18
100
AcDbCircle
 10
39.37084127964769
 20
-14.02782028220844
 30
0.0
 40
1.0
  0
CIRCLE
  5
B6
330
A5
100
AcDbEntity
  8
_4-4_見え掛り
  6
Continuous
 62
    18
100
AcDbCircle
 10
1.42194144605736
 20
-36.12226975256196
 30
0.0
 40
1.0
  0
CIRCLE
  5
B7
330
A5
100
AcDbEntity
  8
_4-4_見え掛り
  6
Continuous
 62
    18
100
AcDbCircle
 10
-38.57805855394264
 20
-39.61997306914913
 30
0.0
 40
1.0
  0
LINE
  5
B8
330
A5
100
AcDbEntity
  8
_4-4_見え掛り
  6
Continuous
 62
    18
100
AcDbLine
 10
-38.57805855394264
 20
-39.61997306914913
 30
0.0
 11
1.720482573448322
 21
-36.09616454527663
 31
0.0
  0
LINE
  5
B9
330
A5
100
AcDbEntity
  8
_4-4_見え掛り
  6
Continuous
 62
    18
100
AcDbLine
 10
1.42194144605736
 20
-36.12226975256195
 30
0.0
 11
28.2192243566212
 21
-33.34298737943529
 31
0.0
  0
LINE
  5
BA
330
A5
100
AcDbEntity
  8
_4-4_見え掛り
  6
Continuous
 62
    18
100
AcDbLine
 10
39.37084127964769
 20
-14.02782028220844
 30
0.0
 11
28.2192243566212
 21
-33.34298737943529
 31
0.0
  0
LINE
  5
BB
330
A5
100
AcDbEntity
  8
_4-4_見え掛り
  6
Continuous
 62
    18
100
AcDbLine
 10
-76.82981633646477
 20
-61.06881144191646
 30
0.0
 11
-37.19866058508824
 21
-59.58229771590922
 31
0.0
  0
LINE
  5
BC
330
A5
100
AcDbEntity
  8
_4-4_見え掛り
  6
Continuous
 62
    18
100
AcDbLine
 10
-77.5798023168564
 20
-41.08287836026657
 30
0.0
 11
-37.94830772966957
 21
-39.5963519249635
 31
0.0
  0
LINE
  5
BD
330
A5
100
AcDbEntity
  8
_4-4_見え掛り
  6
Continuous
 62
    18
100
AcDbLine
 10
26.54108666667579
 20
92.88680149255748
 30
0.0
 11
39.37084127964769
 21
-14.02782028220844
 31
0.0
  0
LINE
  5
BE
330
A5
100
AcDbEntity
  8
_4-4_見え掛り
  6
Continuous
 62
    18
100
AcDbLine
 10
46.27947821579579
 20
96.26258274341301
 30
0.0
 11
59.22837804938615
 21
-11.64491586983981
 31
0.0
  0
ENDBLK
  5
BF
330
A5
100
AcDbEntity
  8
0
100
AcDbBlockEnd
  0
ENDSEC
  0
SECTION
  2
ENTITIES
  0
INSERT
  5
C0
330
6F
100
AcDbEntity
  8
_5-4_5-4
100
AcDbBlockReference
  2
-000-敷地ライン_1_
 10
151.7326711777714
 20
77.25936276693762
 30
0.0
 41
0.4
 42
0.4
  0
LINE
  5
C1
330
6F
100
AcDbEntity
  8
_F-F_補助線
  6
Continuous
 62
     9
100
AcDbLine
 10
0.0
 20
0.0
 30
0.0
 11
0.0
 21
297.0
 31
0.0
  0
LINE
  5
C2
330
6F
100
AcDbEntity
  8
_F-0_F-0___
  6
Continuous
 62
     9
100
AcDbLine
 10
0.0
 20
0.0
 30
0.0
 11
0.0
 21
297.0
 31
0.0
  0
LINE
  5
C3
330
6F
100
AcDbEntity
  8
ADD_LINE
  6
DOT
 62
    18
100
AcDbLine
 10
5.303030303030311
 20
0.0
 30
0.0
 11
5.303030303030311
 21
297.0
 31
0.0
  0
LINE
  5
C4
330
6F
100
AcDbEntity
  8
ADD_LINE
  6
DOT
 62
     9
100
AcDbLine
 10
10.60606060606062
 20
0.0
 30
0.0
 11
10.60606060606062
 21
297.0
 31
0.0
  0
LINE
  5
C5
330
6F
100
AcDbEntity
  8
ADD_LINE
  6
DOT
 62
     9
100
AcDbLine
 10
199.3939393939393
 20
0.0
 30
0.0
 11
199.3939393939393
 21
297.0
 31
0.0
  0
LINE
  5
C6
330
6F
100
AcDbEntity
  8
ADD_LINE
  6
DOT
 62
    18
100
AcDbLine
 10
204.6969696969697
 20
297.0
 30
0.0
 11
204.6969696969697
 21
0.0
 31
0.0
  0
LINE
  5
C7
330
6F
100
AcDbEntity
  8
ADD_LINE
  6
DOT
 62
     9
100
AcDbLine
 10
78.65956742509148
 20
185.1798150578737
 30
0.0
 11
72.68159215891978
 21
276.8449807562959
 31
0.0
  0
LINE
  5
C8
330
6F
100
AcDbEntity
  8
_F-F_補助線
  6
Continuous
 62
     9
100
AcDbLine
 10
0.0
 20
0.0
 30
0.0
 11
10.90629191856056
 21
0.0
 31
0.0
  0
LINE
  5
C9
330
6F
100
AcDbEntity
  8
_F-0_F-0___
  6
Continuous
 62
     9
100
AcDbLine
 10
10.90629191856056
 20
0.0
 30
0.0
 11
0.0
 21
0.0
 31
0.0
  0
LINE
  5
CA
330
6F
100
AcDbEntity
  8
_F-0_F-0___
  6
Continuous
 62
     9
100
AcDbLine
 10
0.0
 20
0.0
 30
0.0
 11
10.90629191856056
 21
0.0
 31
0.0
  0
LINE
  5
CB
330
6F
100
AcDbEntity
  8
_F-0_F-0___
  6
Continuous
 62
     9
100
AcDbLine
 10
210.0
 20
297.0
 30
0.0
 11
210.0
 21
118.5485277128972
 31
0.0
  0
LINE
  5
CC
330
6F
100
AcDbEntity
  8
_F-0_F-0___
  6
Continuous
 62
     9
100
AcDbLine
 10
210.0
 20
118.5485277128972
 30
0.0
 11
210.0
 21
297.0
 31
0.0
  0
LINE
  5
CD
330
6F
100
AcDbEntity
  8
_F-F_補助線
  6
Continuous
 62
     9
100
AcDbLine
 10
210.0
 20
118.5485277128972
 30
0.0
 11
210.0
 21
297.0
 31
0.0
  0
LINE
  5
CE
330
6F
100
AcDbEntity
  8
_F-0_F-0___
  6
Continuous
 62
     9
100
AcDbLine
 10
210.0
 20
297.0
 30
0.0
 11
210.0
 21
118.5485277128972
 31
0.0
  0
LINE
  5
CF
330
6F
100
AcDbEntity
  8
_F-0_F-0___
  6
Continuous
 62
     9
100
AcDbLine
 10
210.0
 20
118.5485277128972
 30
0.0
 11
210.0
 21
297.0
 31
0.0
  0
LINE
  5
D0
330
6F
100
AcDbEntity
  8
ADD_LINE
  6
DOT
 62
     9
100
AcDbLine
 10
35.28159185821881
 20
230.17469293923
 30
0.0
 11
37.91276591613991
 21
220.5270547268527
 31
0.0
  0
LINE
  5
D1
330
6F
100
AcDbEntity
  8
ADD_LINE
  6
DOT
 62
     9
100
AcDbLine
 10
186.3134496680291
 20
245.277878720211
 30
0.0
 11
189.0606609470029
 21
235.6626392438028
 31
0.0
  0
LINE
  5
D2
330
6F
100
AcDbEntity
  8
_F-F_補助線
  6
Continuous
 62
     9
100
AcDbLine
 10
210.0
 20
0.0
 30
0.0
 11
210.0
 21
297.0
 31
0.0
  0
LINE
  5
D3
330
6F
100
AcDbEntity
  8
_F-F_補助線
  6
Continuous
 62
     9
100
AcDbLine
 10
0.0
 20
297.0
 30
0.0
 11
210.0
 21
297.0
 31
0.0
  0
LINE
  5
D4
330
6F
100
AcDbEntity
  8
_F-F_補助線
  6
Continuous
 62
     9
100
AcDbLine
 10
0.0
 20
0.0
 30
0.0
 11
210.0
 21
0.0
 31
0.0
  0
LINE
  5
D5
330
6F
100
AcDbEntity
  8
_F-0_F-0___
  6
Continuous
 62
     9
100
AcDbLine
 10
0.0
 20
297.0
 30
0.0
 11
210.0
 21
297.0
 31
0.0
  0
LINE
  5
D6
330
6F
100
AcDbEntity
  8
ADD_LINE
  6
DOT
 62
    18
100
AcDbLine
 10
0.0
 20
291.6964285714286
 30
0.0
 11
210.0
 21
291.6964285714286
 31
0.0
  0
LINE
  5
D7
330
6F
100
AcDbEntity
  8
ADD_LINE
  6
DOT
 62
     9
100
AcDbLine
 10
0.0
 20
286.3928571428571
 30
0.0
 11
210.0
 21
286.3928571428571
 31
0.0
  0
LINE
  5
D8
330
6F
100
AcDbEntity
  8
ADD_LINE
  6
DOT
 62
    18
100
AcDbLine
 10
210.0
 20
5.303571428571387
 30
0.0
 11
0.0
 21
5.303571428571387
 31
0.0
  0
LINE
  5
D9
330
6F
100
AcDbEntity
  8
ADD_LINE
  6
DOT
 62
     9
100
AcDbLine
 10
210.0
 20
10.60714285714283
 30
0.0
 11
0.0
 21
10.60714285714283
 31
0.0
  0
LINE
  5
DA
330
6F
100
AcDbEntity
  8
ADD_LINE
  6
DOT
 62
     9
100
AcDbLine
 10
0.0
 20
148.5
 30
0.0
 11
210.0
 21
148.5
 31
0.0
  0
TEXT
  5
DB
330
6F
100
AcDbEntity
  8
_5-E_文字
 62
     3
100
AcDbText
 10
147.4814914190321
 20
72.87100163572384
 30
0.0
 40
2.5
  1
当該敷地
 41
0.8
100
AcDbText
  0
TEXT
  5
DC
330
6F
100
AcDbEntity
  8
_5-E_文字
 62
     3
100
AcDbText
 10
124.0712195532984
 20
221.9517865318352
 30
0.0
 40
2.5
  1
河川
 50
4.997379820448532
 41
0.8
100
AcDbText
  0
TEXT
  5
DD
330
6F
100
AcDbEntity
  8
_5-B_5-B
 62
     3
100
AcDbText
 10
166.1788401110678
 20
10.51786707493625
 30
0.0
 40
3.0
  1
地形図・
 41
0.8333333333333332
100
AcDbText
  0
TEXT
  5
DE
330
6F
100
AcDbEntity
  8
_5-B_5-B
 62
     3
100
AcDbText
 10
187.6671106416503
 20
10.46498588746096
 30
0.0
 40
3.0
  1
S=1/500
 41
0.8333333333333332
100
AcDbText
  0
TEXT
  5
DF
330
6F
100
AcDbEntity
  8
_5-E_文字
 62
     3
100
AcDbText
 10
133.0147657574753
 20
88.19255497515193
 30
0.0
 40
2.5
  1
当該古民家
 41
0.8
100
AcDbText
  0
TEXT
  5
E0
330
6F
100
AcDbEntity
  8
_5-E_文字
 62
     3
100
AcDbText
 10
94.84105458343107
 20
86.64639775161189
 30
0.0
 40
2.5
  1
隣家
 41
0.8
100
AcDbText
  0
TEXT
  5
E1
330
6F
100
AcDbEntity
  8
_5-E_文字
 62
     3
100
AcDbText
 10
93.02965699936745
 20
82.50606041660933
 30
0.0
 40
2.5
  1
2階建て
 41
0.8
100
AcDbText
  0
TEXT
  5
E2
330
6F
100
AcDbEntity
  8
_5-E_文字
 62
     3
100
AcDbText
 10
128.7400665137647
 20
36.44480756470563
 30
0.0
 40
2.5
  1
平屋
 41
0.8
100
AcDbText
  0
TEXT
  5
E3
330
6F
100
AcDbEntity
  8
_5-E_文字
 62
     3
100
AcDbText
 10
128.6484184217139
 20
39.61900944016298
 30
0.0
 40
2.5
  1
隣家
 41
0.8
100
AcDbText
  0
TEXT
  5
E4
330
6F
100
AcDbEntity
  8
_5-E_文字
 62
     3
100
AcDbText
 10
174.9356437459995
 20
34.46893279441944
 30
0.0
 40
2.5
  1
平屋
 41
0.8
100
AcDbText
  0
TEXT
  5
E5
330
6F
100
AcDbEntity
  8
_5-E_文字
 62
     3
100
AcDbText
 10
174.8439956539487
 20
37.6431346698768
 30
0.0
 40
2.5
  1
隣家
 41
0.8
100
AcDbText
  0
TEXT
  5
E6
330
6F
100
AcDbEntity
  8
_5-E_文字
 62
     3
100
AcDbText
 10
188.9172269778791
 20
97.0257072545818
 30
0.0
 40
2.5
  1
平屋
 41
0.8
100
AcDbText
  0
TEXT
  5
E7
330
6F
100
AcDbEntity
  8
_5-E_文字
 62
     3
100
AcDbText
 10
188.8255788858283
 20
100.1999091300391
 30
0.0
 40
2.5
  1
隣家
 41
0.8
100
AcDbText
  0
TEXT
  5
E8
330
6F
100
AcDbEntity
  8
_5-E_文字
 62
     3
100
AcDbText
 10
186.0344263115122
 20
120.3763926521539
 30
0.0
 40
2.5
  1
平屋
 41
0.8
100
AcDbText
  0
TEXT
  5
E9
330
6F
100
AcDbEntity
  8
_5-E_文字
 62
     3
100
AcDbText
 10
185.9427782194613
 20
123.5505945276112
 30
0.0
 40
2.5
  1
隣家
 41
0.8
100
AcDbText
  0
TEXT
  5
EA
330
6F
100
AcDbEntity
  8
_5-E_文字
 62
     3
100
AcDbText
 10
163.6654579057936
 20
62.92822666898868
 30
0.0
 40
2.5
  1
±0.0
 41
0.8
100
AcDbText
  0
TEXT
  5
EB
330
6F
100
AcDbEntity
  8
_5-E_文字
 62
     3
100
AcDbText
 10
166.3714335181843
 20
101.5105664051689
 30
0.0
 40
2.5
  1
-1.0
 50
359.9999999996309
 41
0.8
100
AcDbText
  0
TEXT
  5
EC
330
6F
100
AcDbEntity
  8
_5-E_文字
 62
     3
100
AcDbText
 10
126.0936345489157
 20
100.7300139677066
 30
0.0
 40
2.5
  1
-1.0
 50
359.999999999631
 41
0.8
100
AcDbText
  0
TEXT
  5
ED
330
6F
100
AcDbEntity
  8
_5-E_文字
 62
     3
100
AcDbText
 10
143.339731986638
 20
78.26470283172627
 30
0.0
 40
2.5
  1
-1.0
 41
0.8
100
AcDbText
  0
TEXT
  5
EE
330
6F
100
AcDbEntity
  8
_5-E_文字
 62
     3
100
AcDbText
 10
163.7924750246745
 20
121.2433279608348
 30
0.0
 40
2.5
  1
-2.0
 41
0.8
100
AcDbText
  0
TEXT
  5
EF
330
6F
100
AcDbEntity
  8
_5-E_文字
 62
     3
100
AcDbText
 10
120.0801926791836
 20
57.38784803869404
 30
0.0
 40
2.5
  1
-1.5
 41
0.8
100
AcDbText
  0
TEXT
  5
F0
330
6F
100
AcDbEntity
  8
_5-E_文字
 62
     3
100
AcDbText
 10
63.43271433118497
 20
70.40851226589865
 30
0.0
 40
2.5
  1
-3.0
 41
0.8
100
AcDbText
  0
TEXT
  5
F1
330
6F
100
AcDbEntity
  8
_5-E_文字
 62
     3
100
AcDbText
 10
168.0578718062332
 20
70.39027481640295
 30
0.0
 40
2.5
  1
±0.0m
 41
0.8
100
AcDbText
  0
TEXT
  5
F2
330
6F
100
AcDbEntity
  8
_5-E_文字
 62
     3
100
AcDbText
 10
106.6637913250251
 20
42.87297082235201
 30
0.0
 40
2.5
  1
-1.0
 50
20.26049112988275
 41
0.8
100
AcDbText
  0
TEXT
  5
F3
330
6F
100
AcDbEntity
  8
_5-E_文字
 62
     3
100
AcDbText
 10
57.47203845898196
 20
39.01866421402957
 30
0.0
 40
2.5
  1
-2.0
 50
7.263244740584652
 41
0.8
100
AcDbText
  0
TEXT
  5
F4
330
6F
100
AcDbEntity
  8
_5-E_文字
 62
     3
100
AcDbText
 10
165.33871930124
 20
141.0535685322082
 30
0.0
 40
2.5
  1
-3.0
 50
0.0000000026309303
 41
0.8
100
AcDbText
  0
TEXT
  5
F5
330
6F
100
AcDbEntity
  8
_5-E_文字
 62
     3
100
AcDbText
 10
124.0220672810366
 20
134.6125411822563
 30
0.0
 40
2.5
  1
-3.0
 50
6.842773412630934
 41
0.8
100
AcDbText
  0
TEXT
  5
F6
330
6F
100
AcDbEntity
  8
_5-E_文字
 62
     3
100
AcDbText
 10
123.3680980547103
 20
67.18431041784154
 30
0.0
 40
2.5
  1
-1.0
 50
0.0000000026309433
 41
0.8
100
AcDbText
  0
TEXT
  5
F7
330
6F
100
AcDbEntity
  8
_5-E_文字
 62
     3
100
AcDbText
 10
108.3325177844781
 20
63.63327372595801
 30
0.0
 40
2.5
  1
-2.0
 41
0.8
100
AcDbText
  0
TEXT
  5
F8
330
6F
100
AcDbEntity
  8
_5-E_文字
 62
     3
100
AcDbText
 10
130.7417545555579
 20
119.9681825702893
 30
0.0
 40
2.5
  1
-2.0
 50
0.000000002630918
 41
0.8
100
AcDbText
  0
TEXT
  5
F9
330
6F
100
AcDbEntity
  8
_5-E_文字
 62
     3
100
AcDbText
 10
96.85659552728232
 20
151.2241425215234
 30
0.0
 40
2.5
  1
空地
 41
0.8
100
AcDbText
  0
TEXT
  5
FA
330
6F
100
AcDbEntity
  8
_5-E_文字
 62
     3
100
AcDbText
 10
144.7658714399738
 20
158.2749416181082
 30
0.0
 40
2.5
  1
空地
 41
0.8
100
AcDbText
  0
TEXT
  5
FB
330
6F
100
AcDbEntity
  8
_5-E_文字
 62
     3
100
AcDbText
 10
135.1840162574355
 20
197.8678903912381
 30
0.0
 40
2.5
  1
河原
 41
0.8
100
AcDbText
  0
TEXT
  5
FC
330
6F
100
AcDbEntity
  8
_5-E_文字
 62
     3
100
AcDbText
 10
127.6963623900784
 20
251.5263240009551
 30
0.0
 40
2.5
  1
河原
 41
0.8
100
AcDbText
  0
TEXT
  5
FD
330
6F
100
AcDbEntity
  8
_5-E_文字
 62
     3
100
AcDbText
 10
74.48810467682979
 20
227.0167958702836
 30
0.0
 40
2.5
  1
橋
 41
0.8
100
AcDbText
  0
TEXT
  5
FE
330
6F
100
AcDbEntity
  8
_5-E_文字
 62
     3
100
AcDbText
 10
75.99859779274874
 20
180.0115833911122
 30
0.0
 40
2.5
  1
-5.0
 50
0.000000002630918
 41
0.8
100
AcDbText
  0
TEXT
  5
FF
330
6F
100
AcDbEntity
  8
_5-E_文字
 62
     3
100
AcDbText
 10
132.652960171482
 20
130.092929812407
 30
0.0
 40
3.0
  1
川と山の眺望
 41
0.8333333333333332
100
AcDbText
  0
TEXT
  5
100
330
6F
100
AcDbEntity
  8
_5-E_文字
 62
     3
100
AcDbText
 10
139.2943850663884
 20
58.90336722656746
 30
0.0
 40
2.5
  1
-1.0
 41
0.8
100
AcDbText
  0
TEXT
  5
101
330
6F
100
AcDbEntity
  8
_5-E_文字
 62
     3
100
AcDbText
 10
172.0583307340667
 20
80.25778120280016
 30
0.0
 40
2.5
  1
前面道路幅員4.0m
 50
96.84277341263097
 41
0.8
100
AcDbText
  0
TEXT
  5
102
330
6F
100
AcDbEntity
  8
_5-E_文字
 62
     3
100
AcDbText
 10
145.4135935578691
 20
57.08119404940145
 30
0.0
 40
2.5
  1
前面道路幅員4.0m
 50
4.2961681183768
 41
0.8
100
AcDbText
  0
TEXT
  5
103
330
6F
100
AcDbEntity
  8
_5-E_文字
 62
     3
100
AcDbText
 10
175.2862002938582
 20
70.38223574119172
 30
0.0
 40
2.5
  1
＝基準GL
 50
0.0000000003767913
 41
0.8
100
AcDbText
  0
LINE
  5
104
330
6F
100
AcDbEntity
  8
_5-0_5-0
  6
CENTER2
 62
    83
100
AcDbLine
 10
121.9394492468361
 20
48.17344253172525
 30
0.0
 11
140.9446595798469
 21
46.27292149842417
 31
0.0
  0
LINE
  5
105
330
6F
100
AcDbEntity
  8
_5-0_5-0
  6
CENTER2
 62
    83
100
AcDbLine
 10
140.9446595798469
 20
46.27292149842417
 30
0.0
 11
139.0441385465458
 21
27.26771116541337
 31
0.0
  0
LINE
  5
106
330
6F
100
AcDbEntity
  8
_5-0_5-0
  6
CENTER2
 62
    83
100
AcDbLine
 10
139.0441385465458
 20
27.26771116541337
 30
0.0
 11
120.038928213535
 21
29.16823219871447
 31
0.0
  0
LINE
  5
107
330
6F
100
AcDbEntity
  8
_5-0_5-0
  6
CENTER2
 62
    83
100
AcDbLine
 10
120.038928213535
 20
29.16823219871447
 30
0.0
 11
121.9394492468361
 21
48.17344253172525
 31
0.0
  0
LINE
  5
108
330
6F
100
AcDbEntity
  8
_5-0_5-0
  6
CENTER2
 62
    83
100
AcDbLine
 10
167.3663117085004
 20
25.19913462455034
 30
0.0
 11
186.4523501043228
 21
25.92929786190936
 31
0.0
  0
LINE
  5
109
330
6F
100
AcDbEntity
  8
_5-0_5-0
  6
CENTER2
 62
    83
100
AcDbLine
 10
186.4523501043228
 20
25.92929786190936
 30
0.0
 11
185.576154219492
 21
48.83254393689632
 31
0.0
  0
LINE
  5
10A
330
6F
100
AcDbEntity
  8
_5-0_5-0
  6
CENTER2
 62
    83
100
AcDbLine
 10
185.576154219492
 20
48.83254393689632
 30
0.0
 11
166.4901158236695
 21
48.10238069953729
 31
0.0
  0
LINE
  5
10B
330
6F
100
AcDbEntity
  8
_5-0_5-0
  6
CENTER2
 62
    83
100
AcDbLine
 10
166.4901158236695
 20
48.10238069953729
 30
0.0
 11
167.3663117085004
 21
25.19913462455034
 31
0.0
  0
LINE
  5
10C
330
6F
100
AcDbEntity
  8
_5-0_5-0
  6
CENTER2
 62
    83
100
AcDbLine
 10
179.1349434503026
 20
83.58899294444285
 30
0.0
 11
198.1401537833134
 21
81.68847191114176
 31
0.0
  0
LINE
  5
10D
330
6F
100
AcDbEntity
  8
_5-0_5-0
  6
CENTER2
 62
    83
100
AcDbLine
 10
198.1401537833134
 20
81.68847191114176
 30
0.0
 11
201.1049665952631
 21
111.3366000306386
 31
0.0
  0
LINE
  5
10E
330
6F
100
AcDbEntity
  8
_5-0_5-0
  6
CENTER2
 62
    83
100
AcDbLine
 10
201.1049665952631
 20
111.3366000306386
 30
0.0
 11
178.2987141956501
 21
113.6172252705999
 31
0.0
  0
LINE
  5
10F
330
6F
100
AcDbEntity
  8
_5-0_5-0
  6
CENTER2
 62
    83
100
AcDbLine
 10
180.9594436422716
 20
101.8339948641332
 30
0.0
 11
179.1349434503026
 21
83.58899294444285
 31
0.0
  0
LINE
  5
110
330
6F
100
AcDbEntity
  8
_5-0_5-0
  6
CENTER2
 62
    83
100
AcDbLine
 10
178.2987141956501
 20
113.6172252705999
 30
0.0
 11
177.1584015756694
 21
102.2140990707934
 31
0.0
  0
LINE
  5
111
330
6F
100
AcDbEntity
  8
_5-0_5-0
  6
CENTER2
 62
    83
100
AcDbLine
 10
180.9594436422716
 20
101.8339948641332
 30
0.0
 11
177.1584015756694
 21
102.2140990707934
 31
0.0
  0
LINE
  5
112
330
6F
100
AcDbEntity
  8
_5-0_5-0
  6
CENTER2
 62
    83
100
AcDbLine
 10
179.0790371113392
 20
114.6834773441491
 30
0.0
 11
193.983890669468
 21
112.9027101961928
 31
0.0
  0
LINE
  5
113
330
6F
100
AcDbEntity
  8
_5-0_5-0
  6
CENTER2
 62
    83
100
AcDbLine
 10
193.983890669468
 20
112.9027101961928
 30
0.0
 11
195.4743760252809
 21
130.710381675755
 31
0.0
  0
LINE
  5
114
330
6F
100
AcDbEntity
  8
_5-0_5-0
  6
CENTER2
 62
    83
100
AcDbLine
 10
195.4743760252809
 20
130.710381675755
 30
0.0
 11
180.5695224671521
 21
132.4911488237113
 31
0.0
  0
LINE
  5
115
330
6F
100
AcDbEntity
  8
_5-0_5-0
  6
CENTER2
 62
    83
100
AcDbLine
 10
180.5695224671521
 20
132.4911488237113
 30
0.0
 11
179.0790371113392
 21
114.6834773441491
 31
0.0
  0
LINE
  5
116
330
6F
100
AcDbEntity
  8
_5-0_5-0
  6
CENTER2
 62
    83
100
AcDbLine
 10
126.7014477561943
 20
96.81123409935542
 30
0.0
 11
126.7014477561943
 21
81.53123409935538
 31
0.0
  0
LINE
  5
117
330
6F
100
AcDbEntity
  8
_5-0_5-0
  6
CENTER2
 62
    83
100
AcDbLine
 10
126.7014477561943
 20
81.53123409935538
 30
0.0
 11
149.6214477561944
 21
81.53123409935538
 31
0.0
  0
LINE
  5
118
330
6F
100
AcDbEntity
  8
_5-0_5-0
  6
CENTER2
 62
    83
100
AcDbLine
 10
149.6214477561944
 20
96.81123409935542
 30
0.0
 11
149.6214477561944
 21
81.53123409935538
 31
0.0
  0
LINE
  5
119
330
6F
100
AcDbEntity
  8
_5-0_5-0
  6
CENTER2
 62
    83
100
AcDbLine
 10
126.7014477561943
 20
96.81123409935542
 30
0.0
 11
149.6214477561944
 21
96.81123409935542
 31
0.0
  0
LINE
  5
11A
330
6F
100
AcDbEntity
  8
_5-0_5-0
  6
CENTER2
 62
    83
100
AcDbLine
 10
114.3014477561943
 20
98.81123409935542
 30
0.0
 11
81.83144775619435
 21
98.81123409935542
 31
0.0
  0
LINE
  5
11B
330
6F
100
AcDbEntity
  8
_5-0_5-0
  6
CENTER2
 62
    83
100
AcDbLine
 10
81.83144775619435
 20
98.81123409935542
 30
0.0
 11
81.83144775619435
 21
72.07123409935539
 31
0.0
  0
LINE
  5
11C
330
6F
100
AcDbEntity
  8
_5-0_5-0
  6
CENTER2
 62
    83
100
AcDbLine
 10
114.3014477561943
 20
72.07123409935539
 30
0.0
 11
81.83144775619435
 21
72.07123409935539
 31
0.0
  0
LINE
  5
11D
330
6F
100
AcDbEntity
  8
_5-0_5-0
  6
CENTER2
 62
    83
100
AcDbLine
 10
114.3014477561943
 20
98.81123409935542
 30
0.0
 11
114.3014477561943
 21
72.07123409935539
 31
0.0
  0
LINE
  5
11E
330
6F
100
AcDbEntity
  8
_5-C_ハッチ
  6
Continuous
 62
    83
100
AcDbLine
 10
80.39671616503687
 20
224.2937436067706
 30
0.0
 11
88.78849179919813
 21
234.2937436067701
 31
0.0
  0
LINE
  5
11F
330
6F
100
AcDbEntity
  8
_5-C_ハッチ
  6
Continuous
 62
    83
100
AcDbLine
 10
72.56397185758686
 20
224.2937436067703
 30
0.0
 11
73.06354297590245
 21
224.8890539917166
 31
0.0
  0
LINE
  5
120
330
6F
100
AcDbEntity
  8
_5-C_ハッチ
  6
Continuous
 62
    83
100
AcDbLine
 10
69.95305708843777
 20
224.2937436067705
 30
0.0
 11
72.87527115049475
 21
227.7759792973449
 31
0.0
  0
LINE
  5
121
330
6F
100
AcDbEntity
  8
_5-C_ハッチ
  6
Continuous
 62
    83
100
AcDbLine
 10
67.34214231928814
 20
224.2937436067702
 30
0.0
 11
72.68699932508718
 21
230.6629046029734
 31
0.0
  0
LINE
  5
122
330
6F
100
AcDbEntity
  8
_5-C_ハッチ
  6
Continuous
 62
    83
100
AcDbLine
 10
64.73122755013783
 20
224.2937436067701
 30
0.0
 11
72.49872749967933
 21
233.5498299086026
 31
0.0
  0
LINE
  5
123
330
6F
100
AcDbEntity
  8
_5-C_ハッチ
  6
Continuous
 62
    83
100
AcDbLine
 10
62.12031278098823
 20
224.2937436067699
 30
0.0
 11
70.5120884151504
 21
234.2937436067705
 31
0.0
  0
LINE
  5
124
330
6F
100
AcDbEntity
  8
_5-C_ハッチ
  6
Continuous
 62
    83
100
AcDbLine
 10
59.50939801183825
 20
224.2937436067701
 30
0.0
 11
67.90117364600035
 21
234.2937436067707
 31
0.0
  0
LINE
  5
125
330
6F
100
AcDbEntity
  8
_5-C_ハッチ
  6
Continuous
 62
    83
100
AcDbLine
 10
56.89848324268904
 20
224.2937436067704
 30
0.0
 11
65.29025887685077
 21
234.2937436067705
 31
0.0
  0
LINE
  5
126
330
6F
100
AcDbEntity
  8
_5-C_ハッチ
  6
Continuous
 62
    83
100
AcDbLine
 10
54.28756847353906
 20
224.2937436067706
 30
0.0
 11
62.67934410770056
 21
234.2937436067704
 31
0.0
  0
LINE
  5
127
330
6F
100
AcDbEntity
  8
_5-C_ハッチ
  6
Continuous
 62
    83
100
AcDbLine
 10
51.66261400294513
 20
224.2770132959808
 30
0.0
 11
60.06842933855034
 21
234.2937436067704
 31
0.0
  0
LINE
  5
128
330
6F
100
AcDbEntity
  8
_5-C_ハッチ
  6
Continuous
 62
    83
100
AcDbLine
 10
48.27679930872022
 20
223.3536092884655
 30
0.0
 11
57.4575145694012
 21
234.2937436067707
 31
0.0
  0
LINE
  5
129
330
6F
100
AcDbEntity
  8
_5-C_ハッチ
  6
Continuous
 62
    83
100
AcDbLine
 10
44.89098461449419
 20
222.4302052809496
 30
0.0
 11
54.84659980025078
 21
234.2937436067704
 31
0.0
  0
LINE
  5
12A
330
6F
100
AcDbEntity
  8
_5-C_ハッチ
  6
Continuous
 62
    83
100
AcDbLine
 10
41.5051699202686
 20
221.5068012734334
 30
0.0
 11
52.23568503110164
 21
234.2937436067707
 31
0.0
  0
LINE
  5
12B
330
6F
100
AcDbEntity
  8
_5-C_ハッチ
  6
Continuous
 62
    83
100
AcDbLine
 10
38.11935522604193
 20
220.5833972659168
 30
0.0
 11
49.3992057714346
 21
234.0249512791987
 31
0.0
  0
LINE
  5
12C
330
6F
100
AcDbEntity
  8
_5-C_ハッチ
  6
Continuous
 62
    83
100
AcDbLine
 10
37.31143743070805
 20
222.7319258401019
 30
0.0
 11
46.01339107720952
 21
233.101547271682
 31
0.0
  0
LINE
  5
12D
330
6F
100
AcDbEntity
  8
_5-C_ハッチ
  6
Continuous
 62
    83
100
AcDbLine
 10
36.67103400663126
 20
225.080071728383
 30
0.0
 11
42.62757638298341
 21
232.1781432641661
 31
0.0
  0
LINE
  5
12E
330
6F
100
AcDbEntity
  8
_5-C_ハッチ
  6
Continuous
 62
    83
100
AcDbLine
 10
36.03063058255515
 20
227.428217616664
 30
0.0
 11
39.24176168875744
 21
231.2547392566494
 31
0.0
  0
LINE
  5
12F
330
6F
100
AcDbEntity
  8
_5-C_ハッチ
  6
Continuous
 62
    83
100
AcDbLine
 10
35.39022715847847
 20
229.7763635049451
 30
0.0
 11
35.85594699453094
 21
230.331335249133
 31
0.0
  0
LINE
  5
130
330
6F
100
AcDbEntity
  8
_5-C_ハッチ
  6
Continuous
 62
    83
100
AcDbLine
 10
185.7464538346519
 20
234.7157229259876
 30
0.0
 11
188.4207070614159
 21
237.9024778433587
 31
0.0
  0
LINE
  5
131
330
6F
100
AcDbEntity
  8
_5-C_ハッチ
  6
Continuous
 62
    83
100
AcDbLine
 10
182.3121015207284
 20
233.7344794077243
 30
0.0
 11
187.757553844593
 21
240.2235141022376
 31
0.0
  0
LINE
  5
132
330
6F
100
AcDbEntity
  8
_5-C_ハッチ
  6
Continuous
 62
    83
100
AcDbLine
 10
178.8777492068035
 20
232.7532358894603
 30
0.0
 11
187.0944006277701
 21
242.5445503611173
 31
0.0
  0
LINE
  5
133
330
6F
100
AcDbEntity
  8
_5-C_ハッチ
  6
Continuous
 62
    83
100
AcDbLine
 10
175.4433968928791
 20
231.771992371196
 30
0.0
 11
186.4312474109476
 21
244.8655866199965
 31
0.0
  0
LINE
  5
134
330
6F
100
AcDbEntity
  8
_5-C_ハッチ
  6
Continuous
 62
    83
100
AcDbLine
 10
172.0090445789544
 20
230.7907488529321
 30
0.0
 11
183.489150869196
 21
244.4709362062591
 31
0.0
  0
LINE
  5
135
330
6F
100
AcDbEntity
  8
_5-C_ハッチ
  6
Continuous
 62
    83
100
AcDbLine
 10
168.5746922650311
 20
229.809505334668
 30
0.0
 11
180.0547985552721
 21
243.4896926879943
 31
0.0
  0
LINE
  5
136
330
6F
100
AcDbEntity
  8
_5-C_ハッチ
  6
Continuous
 62
    83
100
AcDbLine
 10
165.1403399511058
 20
228.8282618164034
 30
0.0
 11
176.6204462413474
 21
242.5084491697304
 31
0.0
  0
LINE
  5
137
330
6F
100
AcDbEntity
  8
_5-C_ハッチ
  6
Continuous
 62
    83
100
AcDbLine
 10
161.3947710034204
 20
227.4761592006994
 30
0.0
 11
173.1860939274226
 21
241.5272056514665
 31
0.0
  0
LINE
  5
138
330
6F
100
AcDbEntity
  8
_5-C_ハッチ
  6
Continuous
 62
    83
100
AcDbLine
 10
157.3174622087116
 20
225.7287411458245
 30
0.0
 11
169.7517416134989
 21
240.5459621332031
 31
0.0
  0
LINE
  5
139
330
6F
100
AcDbEntity
  8
_5-C_ハッチ
  6
Continuous
 62
    83
100
AcDbLine
 10
153.3270901046523
 20
224.0849205826368
 30
0.0
 11
166.3173892995734
 21
239.5647186149383
 31
0.0
  0
LINE
  5
13A
330
6F
100
AcDbEntity
  8
_5-C_ハッチ
  6
Continuous
 62
    83
100
AcDbLine
 10
149.7230901009199
 20
222.9015175963364
 30
0.0
 11
162.8830369856491
 21
238.583475096674
 31
0.0
  0
LINE
  5
13B
330
6F
100
AcDbEntity
  8
_5-C_ハッチ
  6
Continuous
 62
    83
100
AcDbLine
 10
146.1190900971869
 20
221.7181146100362
 30
0.0
 11
159.3432771015916
 21
237.4766233940068
 31
0.0
  0
LINE
  5
13C
330
6F
100
AcDbEntity
  8
_5-C_ハッチ
  6
Continuous
 62
    83
100
AcDbLine
 10
142.5150900934537
 20
220.5347116237349
 30
0.0
 11
155.2659683068823
 21
235.7292053391312
 31
0.0
  0
LINE
  5
13D
330
6F
100
AcDbEntity
  8
_5-C_ハッチ
  6
Continuous
 62
    83
100
AcDbLine
 10
139.459780869564
 20
220.0051521191523
 30
0.0
 11
151.1886595121725
 21
233.981787284256
 31
0.0
  0
LINE
  5
13E
330
6F
100
AcDbEntity
  8
_5-C_ハッチ
  6
Continuous
 62
    83
100
AcDbLine
 10
136.404759681434
 20
219.4759358503426
 30
0.0
 11
147.4992423731413
 21
232.6965975736414
 31
0.0
  0
LINE
  5
13F
330
6F
100
AcDbEntity
  8
_5-C_ハッチ
  6
Continuous
 62
    83
100
AcDbLine
 10
133.3497384933048
 20
218.946719581533
 30
0.0
 11
143.8952423694092
 21
231.5131945873415
 31
0.0
  0
LINE
  5
140
330
6F
100
AcDbEntity
  8
_5-C_ハッチ
  6
Continuous
 62
    83
100
AcDbLine
 10
130.2947173051745
 20
218.4175033127232
 30
0.0
 11
140.2912423656762
 21
230.3297916010413
 31
0.0
  0
LINE
  5
141
330
6F
100
AcDbEntity
  8
_5-C_ハッチ
  6
Continuous
 62
    83
100
AcDbLine
 10
127.239696117046
 20
217.8882870439134
 30
0.0
 11
137.2051184136928
 21
229.763511943968
 31
0.0
  0
LINE
  5
142
330
6F
100
AcDbEntity
  8
_5-C_ハッチ
  6
Continuous
 62
    83
100
AcDbLine
 10
124.1846749289155
 20
217.3590707751032
 30
0.0
 11
134.1500972255625
 21
229.2342956751581
 31
0.0
  0
LINE
  5
143
330
6F
100
AcDbEntity
  8
_5-C_ハッチ
  6
Continuous
 62
    83
100
AcDbLine
 10
121.5899409926494
 20
217.3783525500085
 30
0.0
 11
131.0950760374331
 21
228.7050794063482
 31
0.0
  0
LINE
  5
144
330
6F
100
AcDbEntity
  8
_5-C_ハッチ
  6
Continuous
 62
    83
100
AcDbLine
 10
119.0248130082093
 20
217.4329140477249
 30
0.0
 11
128.040054849303
 21
228.1758631375385
 31
0.0
  0
LINE
  5
145
330
6F
100
AcDbEntity
  8
_5-C_ハッチ
  6
Continuous
 62
    83
100
AcDbLine
 10
116.4596850237695
 20
217.4874755454409
 30
0.0
 11
124.9850336611733
 21
227.6466468687285
 31
0.0
  0
LINE
  5
146
330
6F
100
AcDbEntity
  8
_5-C_ハッチ
  6
Continuous
 62
    83
100
AcDbLine
 10
114.2084937842245
 20
217.916137541766
 30
0.0
 11
121.9300124730432
 21
227.1174305999187
 31
0.0
  0
LINE
  5
147
330
6F
100
AcDbEntity
  8
_5-C_ハッチ
  6
Continuous
 62
    83
100
AcDbLine
 10
112.0004011455744
 20
218.3961576806031
 30
0.0
 11
119.2632248974195
 21
227.0508501658017
 31
0.0
  0
LINE
  5
148
330
6F
100
AcDbEntity
  8
_5-C_ハッチ
  6
Continuous
 62
    83
100
AcDbLine
 10
109.7923085069247
 20
218.8761778194399
 30
0.0
 11
117.0551322587698
 21
227.5308703046385
 31
0.0
  0
LINE
  5
149
330
6F
100
AcDbEntity
  8
_5-C_ハッチ
  6
Continuous
 62
    83
100
AcDbLine
 10
107.5842158682745
 20
219.3561979582769
 30
0.0
 11
114.8470396201197
 21
228.0108904434756
 31
0.0
  0
LINE
  5
14A
330
6F
100
AcDbEntity
  8
_5-C_ハッチ
  6
Continuous
 62
    83
100
AcDbLine
 10
105.3779781975365
 20
219.838428556488
 30
0.0
 11
112.63894698147
 21
228.4909105823123
 31
0.0
  0
LINE
  5
14B
330
6F
100
AcDbEntity
  8
_5-C_ハッチ
  6
Continuous
 62
    83
100
AcDbLine
 10
103.3377640688414
 20
220.5184999327196
 30
0.0
 11
110.4308543428199
 21
228.9709307211495
 31
0.0
  0
LINE
  5
14C
330
6F
100
AcDbEntity
  8
_5-C_ハッチ
  6
Continuous
 62
    83
100
AcDbLine
 10
101.2975499401471
 20
221.1985713089511
 30
0.0
 11
108.2227617041703
 21
229.4509508599864
 31
0.0
  0
LINE
  5
14D
330
6F
100
AcDbEntity
  8
_5-C_ハッチ
  6
Continuous
 62
    83
100
AcDbLine
 10
99.25733581145273
 20
221.8786426851824
 30
0.0
 11
106.1695257736804
 21
230.1155048983345
 31
0.0
  0
LINE
  5
14E
330
6F
100
AcDbEntity
  8
_5-C_ハッチ
  6
Continuous
 62
    83
100
AcDbLine
 10
97.21712168275836
 20
222.5587140614139
 30
0.0
 11
104.129311644986
 21
230.795576274566
 31
0.0
  0
LINE
  5
14F
330
6F
100
AcDbEntity
  8
_5-C_ハッチ
  6
Continuous
 62
    83
100
AcDbLine
 10
95.17690755406341
 20
223.2387854376457
 30
0.0
 11
102.0890975162909
 21
231.4756476507976
 31
0.0
  0
LINE
  5
150
330
6F
100
AcDbEntity
  8
_5-C_ハッチ
  6
Continuous
 62
    83
100
AcDbLine
 10
93.13669342536831
 20
223.9188568138773
 30
0.0
 11
100.0488833875958
 21
232.1557190270292
 31
0.0
  0
LINE
  5
151
330
6F
100
AcDbEntity
  8
_5-C_ハッチ
  6
Continuous
 62
    83
100
AcDbLine
 10
90.8403752416358
 20
224.2937436067703
 30
0.0
 11
98.0086692589016
 21
232.8357904032608
 31
0.0
  0
LINE
  5
152
330
6F
100
AcDbEntity
  8
_5-C_ハッチ
  6
Continuous
 62
    83
100
AcDbLine
 10
88.22946047248587
 20
224.2937436067705
 30
0.0
 11
95.96845513020662
 21
233.5158617794925
 31
0.0
  0
LINE
  5
153
330
6F
100
AcDbEntity
  8
_5-C_ハッチ
  6
Continuous
 62
    83
100
AcDbLine
 10
85.61854570333615
 20
224.2937436067702
 30
0.0
 11
93.92824100151216
 21
234.195933155724
 31
0.0
  0
LINE
  5
154
330
6F
100
AcDbEntity
  8
_5-C_ハッチ
  6
Continuous
 62
    83
100
AcDbLine
 10
83.00763093418611
 20
224.2937436067704
 30
0.0
 11
91.399406568348
 21
234.2937436067707
 31
0.0
  0
LINE
  5
155
330
6F
100
AcDbEntity
  8
_5-C_ハッチ
  6
Continuous
 62
    83
100
AcDbLine
 10
78.64271232970145
 20
231.5374316379046
 30
0.0
 11
80.95574749174893
 21
234.2937436067702
 31
0.0
  0
LINE
  5
156
330
6F
100
AcDbEntity
  8
_5-C_ハッチ
  6
Continuous
 62
    83
100
AcDbLine
 10
79.01925598051673
 20
225.7635810266468
 30
0.0
 11
86.17757703004844
 21
234.2937436067702
 31
0.0
  0
LINE
  5
157
330
6F
100
AcDbEntity
  8
_5-C_ハッチ
  6
Continuous
 62
    83
100
AcDbLine
 10
78.83098415510909
 20
228.6505063322757
 30
0.0
 11
83.56666226089869
 21
234.2937436067702
 31
0.0
  0
LINE
  5
158
330
6F
100
AcDbEntity
  8
_5-B_5-B
  6
DASHED1
 62
    83
100
AcDbLine
 10
71.4218208781914
 20
74.18298778360278
 30
0.0
 11
58.66356124728578
 21
72.18950971627378
 31
0.0
  0
LINE
  5
159
330
6F
100
AcDbEntity
  8
_5-B_5-B
  6
DASHED1
 62
    83
100
AcDbLine
 10
58.66356124728578
 20
72.18950971627378
 30
0.0
 11
51.28769239816848
 21
63.21885841329326
 31
0.0
  0
LINE
  5
15A
330
6F
100
AcDbEntity
  8
_5-B_5-B
  6
DASHED1
 62
    83
100
AcDbLine
 10
93.00422083414092
 20
54.83698016847426
 30
0.0
 11
83.0710399532424
 21
51.52591987484142
 31
0.0
  0
LINE
  5
15B
330
6F
100
AcDbEntity
  8
_5-B_5-B
  6
DASHED1
 62
    83
100
AcDbLine
 10
83.0710399532424
 20
51.52591987484142
 30
0.0
 11
75.30717443713779
 21
46.95894015948579
 31
0.0
  0
LINE
  5
15C
330
6F
100
AcDbEntity
  8
_5-B_5-B
  6
DASHED1
 62
    83
100
AcDbLine
 10
75.30717443713779
 20
46.95894015948579
 30
0.0
 11
67.5433089210332
 21
40.56516855798789
 31
0.0
  0
LINE
  5
15D
330
6F
100
AcDbEntity
  8
_5-B_5-B
  6
DASHED1
 62
    83
100
AcDbLine
 10
67.5433089210332
 20
40.56516855798789
 30
0.0
 11
66.85826196372989
 21
39.76594710780066
 31
0.0
  0
LINE
  5
15E
330
6F
100
AcDbEntity
  8
_5-B_5-B
  6
DASHED1
 62
    83
100
AcDbLine
 10
66.85826196372989
 20
39.76594710780066
 30
0.0
 11
55.21246368957297
 21
38.28167870031007
 31
0.0
  0
LINE
  5
15F
330
6F
100
AcDbEntity
  8
_5-B_5-B
  6
DASHED1
 62
    83
100
AcDbLine
 10
55.21246368957297
 20
38.28167870031007
 30
0.0
 11
50.75965846710125
 21
34.85644391379334
 31
0.0
  0
LINE
  5
160
330
6F
100
AcDbEntity
  8
_5-B_5-B
  6
DASHED1
 62
    83
100
AcDbLine
 10
161.6136943893027
 20
119.9448961800029
 30
0.0
 11
161.7002826272066
 21
120.8973667969458
 31
0.0
  0
LINE
  5
161
330
6F
100
AcDbEntity
  8
_5-B_5-B
  6
DASHED1
 62
    83
100
AcDbLine
 10
161.7002826272066
 20
120.8973667969458
 30
0.0
 11
169.75298875227
 21
121.5034844622732
 31
0.0
  0
LINE
  5
162
330
6F
100
AcDbEntity
  8
_5-B_5-B
  6
DASHED1
 62
    83
100
AcDbLine
 10
169.75298875227
 20
121.5034844622732
 30
0.0
 11
175.2080477402161
 21
124.9670139784294
 31
0.0
  0
LINE
  5
163
330
6F
100
AcDbEntity
  8
_5-B_5-B
  6
DASHED1
 62
    83
100
AcDbLine
 10
175.2080477402161
 20
124.9670139784294
 30
0.0
 11
181.788753820913
 21
129.7293670631443
 31
0.0
  0
LINE
  5
164
330
6F
100
AcDbEntity
  8
_5-B_5-B
  6
DASHED1
 62
    83
100
AcDbLine
 10
181.788753820913
 20
129.7293670631443
 30
0.0
 11
194.4306365548834
 21
133.8856024825318
 31
0.0
  0
LINE
  5
165
330
6F
100
AcDbEntity
  8
_5-B_5-B
  6
DASHED1
 62
    83
100
AcDbLine
 10
106.2690998014278
 20
42.46119084313732
 30
0.0
 11
97.74504226165321
 21
39.32498099359762
 31
0.0
  0
LINE
  5
166
330
6F
100
AcDbEntity
  8
_5-B_5-B
  6
DASHED1
 62
    83
100
AcDbLine
 10
97.74504226165321
 20
39.32498099359762
 30
0.0
 11
93.80467604043664
 21
36.91251187856707
 31
0.0
  0
LINE
  5
167
330
6F
100
AcDbEntity
  8
_5-B_5-B
  6
DASHED1
 62
    83
100
AcDbLine
 10
93.80467604043664
 20
36.91251187856707
 30
0.0
 11
89.06015344754326
 21
33.53505511752429
 31
0.0
  0
LINE
  5
168
330
6F
100
AcDbEntity
  8
_5-B_5-B
  6
DASHED1
 62
    83
100
AcDbLine
 10
162.9224641685927
 20
140.32165488901
 30
0.0
 11
151.5596391848174
 21
138.328176821681
 31
0.0
  0
LINE
  5
169
330
6F
100
AcDbEntity
  8
_5-B_5-B
  6
DASHED1
 62
    83
100
AcDbLine
 10
162.9224641685927
 20
140.32165488901
 30
0.0
 11
171.1556855555772
 21
140.0929542949271
 31
0.0
  0
LINE
  5
16A
330
6F
100
AcDbEntity
  8
_5-B_5-B
  6
DASHED1
 62
    83
100
AcDbLine
 10
191.3735810653864
 20
148.2294244391185
 30
0.0
 11
171.1556855555772
 21
140.0929542949271
 31
0.0
  0
LINE
  5
16B
330
6F
100
AcDbEntity
  8
_5-B_5-B
  6
DASHED1
 62
    83
100
AcDbLine
 10
151.5596391848174
 20
138.328176821681
 30
0.0
 11
134.6150756125208
 21
136.1353509476191
 31
0.0
  0
LINE
  5
16C
330
6F
100
AcDbEntity
  8
_5-B_5-B
  6
DASHED1
 62
    83
100
AcDbLine
 10
134.6150756125208
 20
136.1353509476191
 30
0.0
 11
120.9889838387821
 21
132.9827215534206
 31
0.0
  0
LINE
  5
16D
330
6F
100
AcDbEntity
  8
_5-B_5-B
  6
DASHED1
 62
    83
100
AcDbLine
 10
75.76639270387261
 20
103.9359034013826
 30
0.0
 11
75.41852661821945
 21
103.9359034013826
 31
0.0
  0
LINE
  5
16E
330
6F
100
AcDbEntity
  8
_5-B_5-B
  6
DASHED1
 62
    83
100
AcDbLine
 10
74.78904511640819
 20
104.0069738935226
 30
0.0
 11
71.4218208781914
 21
74.18298778360278
 31
0.0
  0
LINE
  5
16F
330
6F
100
AcDbEntity
  8
_5-B_5-B
  6
DASHED1
 62
    83
100
AcDbLine
 10
161.2713459793844
 20
120.819434685012
 30
0.0
 11
158.6237740497938
 21
120.5807191831637
 31
0.0
  0
LINE
  5
170
330
6F
100
AcDbEntity
  8
_5-B_5-B
  6
DASHED1
 62
    83
100
AcDbLine
 10
95.12320222228211
 20
64.01923285041942
 30
0.0
 11
95.26446764815819
 21
62.60657859165862
 31
0.0
  0
LINE
  5
171
330
6F
100
AcDbEntity
  8
_5-B_5-B
  6
DASHED1
 62
    83
100
AcDbLine
 10
101.3637646687423
 20
64.2503647928809
 30
0.0
 11
95.12320222228211
 21
64.01923285041942
 31
0.0
  0
LINE
  5
172
330
6F
100
AcDbEntity
  8
_5-B_5-B
  6
DASHED1
 62
    83
100
AcDbLine
 10
95.26446764815819
 20
62.60657859165862
 30
0.0
 11
93.00422083414092
 21
54.83698016847426
 31
0.0
  0
LINE
  5
173
330
6F
100
AcDbEntity
  8
_5-B_5-B
  6
DASHED1
 62
    83
100
AcDbLine
 10
102.8094249796207
 20
70.61127016074582
 30
0.0
 11
101.3637646687423
 21
64.2503647928809
 31
0.0
  0
LINE
  5
174
330
6F
100
AcDbEntity
  8
_5-B_5-B
  6
DASHED1
 62
    83
100
AcDbLine
 10
103.4101230538802
 20
76.31790186621057
 30
0.0
 11
102.8094249796207
 21
70.61127016074582
 31
0.0
  0
LINE
  5
175
330
6F
100
AcDbEntity
  8
_5-B_5-B
  6
DASHED1
 62
    83
100
AcDbLine
 10
103.4101230538802
 20
84.12697683158341
 30
0.0
 11
103.4101230538802
 21
76.31790186621057
 31
0.0
  0
LINE
  5
176
330
6F
100
AcDbEntity
  8
_5-B_5-B
  6
DASHED1
 62
    83
100
AcDbLine
 10
103.7104720910099
 20
91.78587727839145
 30
0.0
 11
103.4101230538802
 21
84.12697683158345
 31
0.0
  0
LINE
  5
177
330
6F
100
AcDbEntity
  8
_5-B_5-B
  6
DASHED1
 62
    83
100
AcDbLine
 10
104.8341616572482
 20
101.5699217844254
 30
0.0
 11
103.7104720910099
 21
91.78587727839142
 31
0.0
  0
LINE
  5
178
330
6F
100
AcDbEntity
  8
_5-B_5-B
  6
DASHED1
 62
    83
100
AcDbLine
 10
104.8341616572482
 20
101.5699217844254
 30
0.0
 11
107.4220527794938
 21
110.9261435340828
 31
0.0
  0
LINE
  5
179
330
6F
100
AcDbEntity
  8
_5-B_5-B
  6
DASHED1
 62
    83
100
AcDbLine
 10
107.4220527794938
 20
110.9261435340828
 30
0.0
 11
111.4637289273885
 21
115.5862668606451
 31
0.0
  0
LINE
  5
17A
330
6F
100
AcDbEntity
  8
_5-B_5-B
  6
DASHED1
 62
    83
100
AcDbLine
 10
111.4637289273885
 20
115.5862668606451
 30
0.0
 11
115.805308702637
 21
118.6414526284125
 31
0.0
  0
LINE
  5
17B
330
6F
100
AcDbEntity
  8
_5-B_5-B
  6
DASHED1
 62
    83
100
AcDbLine
 10
115.805308702637
 20
118.6414526284125
 30
0.0
 11
123.0412749947179
 21
119.6062481340233
 31
0.0
  0
LINE
  5
17C
330
6F
100
AcDbEntity
  8
_5-B_5-B
  6
DASHED1
 62
    83
100
AcDbLine
 10
123.0412749947179
 20
119.6062481340233
 30
0.0
 11
135.1012188148526
 21
119.7670473849584
 31
0.0
  0
LINE
  5
17D
330
6F
100
AcDbEntity
  8
_5-B_5-B
  6
DASHED1
 62
    83
100
AcDbLine
 10
135.1012188148526
 20
119.7670473849584
 30
0.0
 11
147.1611626349874
 21
120.2494451377638
 31
0.0
  0
LINE
  5
17E
330
6F
100
AcDbEntity
  8
_5-B_5-B
  6
DASHED1
 62
    83
100
AcDbLine
 10
147.1611626349874
 20
120.2494451377638
 30
0.0
 11
158.6237740497938
 21
120.5807191831637
 31
0.0
  0
LINE
  5
17F
330
6F
100
AcDbEntity
  8
_5-B_5-B
  6
DASHED1
 62
    83
100
AcDbLine
 10
89.45242515734388
 20
117.5033659798455
 30
0.0
 11
93.55039115490022
 21
122.3818969293173
 31
0.0
  0
LINE
  5
180
330
6F
100
AcDbEntity
  8
_5-B_5-B
  6
DASHED1
 62
    83
100
AcDbLine
 10
93.55039115490022
 20
122.3818969293173
 30
0.0
 11
98.62406334235096
 21
126.6750041648526
 31
0.0
  0
LINE
  5
181
330
6F
100
AcDbEntity
  8
_5-B_5-B
  6
DASHED1
 62
    83
100
AcDbLine
 10
74.78904511640819
 20
104.0069738935226
 30
0.0
 11
82.83931612737926
 21
110.3815562552682
 31
0.0
  0
LINE
  5
182
330
6F
100
AcDbEntity
  8
_5-B_5-B
  6
DASHED1
 62
    83
100
AcDbLine
 10
89.45242515734388
 20
117.5033659798455
 30
0.0
 11
82.83931612737925
 21
110.3815562552682
 31
0.0
  0
LINE
  5
183
330
6F
100
AcDbEntity
  8
_5-B_5-B
  6
DASHED1
 62
    83
100
AcDbLine
 10
120.9889838387821
 20
132.9827215534206
 30
0.0
 11
104.432286198011
 21
129.4854345788816
 31
0.0
  0
LINE
  5
184
330
6F
100
AcDbEntity
  8
_5-B_5-B
  6
DASHED1
 62
    83
100
AcDbLine
 10
98.62406334235096
 20
126.6750041648526
 30
0.0
 11
104.673441719696
 21
129.6021227345357
 31
0.0
  0
LINE
  5
185
330
6F
100
AcDbEntity
  8
_5-B_5-B
  6
DASHED1
 62
    83
100
AcDbLine
 10
104.673441719696
 20
129.6021227345357
 30
0.0
 11
110.5276788590619
 21
130.7729701624088
 31
0.0
  0
LINE
  5
186
330
6F
100
AcDbEntity
  8
_4-B_予備
  6
Continuous
 62
    83
100
AcDbLine
 10
150.2554873368141
 20
106.3460852522192
 30
0.0
 11
153.2146114768207
 21
106.3460852522192
 31
0.0
  0
LINE
  5
187
330
6F
100
AcDbEntity
  8
_4-B_予備
  6
Continuous
 62
    83
100
AcDbLine
 10
151.7350494068174
 20
112.7399070547335
 30
0.0
 11
151.7350494068174
 21
109.3052093930191
 31
0.0
  0
LINE
  5
188
330
6F
100
AcDbEntity
  8
_4-B_予備
  6
Continuous
 62
    83
100
AcDbLine
 10
150.5513997508147
 20
106.9379100803791
 30
0.0
 11
152.91869906282
 21
106.9379100803791
 31
0.0
  0
LINE
  5
189
330
6F
100
AcDbEntity
  8
_4-B_予備
  6
Continuous
 62
    83
100
AcDbLine
 10
150.8473121648154
 20
107.5297349085391
 30
0.0
 11
152.6227866488194
 21
107.5297349085391
 31
0.0
  0
LINE
  5
18A
330
6F
100
AcDbEntity
  8
_4-B_予備
  6
Continuous
 62
    83
100
AcDbLine
 10
151.1432245788161
 20
108.1215597366991
 30
0.0
 11
152.3268742348187
 21
108.1215597366991
 31
0.0
  0
LINE
  5
18B
330
6F
100
AcDbEntity
  8
_4-B_予備
  6
Continuous
 62
    83
100
AcDbLine
 10
151.4391369928167
 20
108.7133845648591
 30
0.0
 11
152.030961820818
 21
108.7133845648591
 31
0.0
  0
LINE
  5
18C
330
6F
100
AcDbEntity
  8
_4-B_予備
  6
Continuous
 62
    83
100
AcDbLine
 10
131.2742634124292
 20
106.3460852522192
 30
0.0
 11
134.2333875524359
 21
106.3460852522192
 31
0.0
  0
LINE
  5
18D
330
6F
100
AcDbEntity
  8
_4-B_予備
  6
Continuous
 62
    83
100
AcDbLine
 10
132.7538254824325
 20
112.7399070547335
 30
0.0
 11
132.7538254824325
 21
109.3052093930191
 31
0.0
  0
LINE
  5
18E
330
6F
100
AcDbEntity
  8
_4-B_予備
  6
Continuous
 62
    83
100
AcDbLine
 10
131.5701758264298
 20
106.9379100803791
 30
0.0
 11
133.9374751384352
 21
106.9379100803791
 31
0.0
  0
LINE
  5
18F
330
6F
100
AcDbEntity
  8
_4-B_予備
  6
Continuous
 62
    83
100
AcDbLine
 10
131.8660882404305
 20
107.5297349085391
 30
0.0
 11
133.6415627244345
 21
107.5297349085391
 31
0.0
  0
LINE
  5
190
330
6F
100
AcDbEntity
  8
_4-B_予備
  6
Continuous
 62
    83
100
AcDbLine
 10
132.1620006544312
 20
108.1215597366991
 30
0.0
 11
133.3456503104339
 21
108.1215597366991
 31
0.0
  0
LINE
  5
191
330
6F
100
AcDbEntity
  8
_4-B_予備
  6
Continuous
 62
    83
100
AcDbLine
 10
132.4579130684319
 20
108.7133845648591
 30
0.0
 11
133.0497378964332
 21
108.7133845648591
 31
0.0
  0
LINE
  5
192
330
6F
100
AcDbEntity
  8
_4-B_予備
  6
Continuous
 62
    83
100
AcDbLine
 10
162.7570904606432
 20
104.1400742253554
 30
0.0
 11
163.9624563115579
 21
100.8573997150865
 31
0.0
  0
LINE
  5
193
330
6F
100
AcDbEntity
  8
_4-B_予備
  6
Continuous
 62
    83
100
AcDbLine
 10
122.6985111621943
 20
67.01206980605471
 30
0.0
 11
120.3014477561943
 21
60.8112340993554
 31
0.0
  0
LINE
  5
194
330
6F
100
AcDbEntity
  8
_4-B_予備
  6
Continuous
 62
    83
100
AcDbLine
 10
127.4343230284095
 20
65.79730905464289
 30
0.0
 11
125.3937601527638
 21
66.1533242674672
 31
0.0
  0
LINE
  5
195
330
6F
100
AcDbEntity
  8
_4-B_予備
  6
Continuous
 62
    83
100
AcDbLine
 10
125.6447944343056
 20
61.56624330474936
 30
0.0
 11
126.0580263776669
 21
63.93475378486236
 31
0.0
  0
LINE
  5
196
330
6F
100
AcDbEntity
  8
_4-B_予備
  6
Continuous
 62
    83
100
AcDbLine
 10
127.1590636982609
 20
65.42479800068682
 30
0.0
 11
125.5266133977445
 21
65.70961017094622
 31
0.0
  0
LINE
  5
197
330
6F
100
AcDbEntity
  8
_4-B_予備
  6
Continuous
 62
    83
100
AcDbLine
 10
126.8838043681124
 20
65.05228694673069
 30
0.0
 11
125.6594666427251
 21
65.26589607442526
 31
0.0
  0
LINE
  5
198
330
6F
100
AcDbEntity
  8
_4-B_予備
  6
Continuous
 62
    83
100
AcDbLine
 10
126.6085450379639
 20
64.67977589277459
 30
0.0
 11
125.7923198877057
 21
64.82218197790429
 31
0.0
  0
LINE
  5
199
330
6F
100
AcDbEntity
  8
_4-B_予備
  6
Continuous
 62
    83
100
AcDbLine
 10
126.3332857078154
 20
64.30726483881847
 30
0.0
 11
125.9251731326863
 21
64.37846788138333
 31
0.0
  0
LINE
  5
19A
330
6F
100
AcDbEntity
  8
_4-B_予備
  6
Continuous
 62
    83
100
AcDbLine
 10
133.666086178265
 20
64.67596106126157
 30
0.0
 11
132.237692165313
 21
64.92517171023857
 31
0.0
  0
LINE
  5
19B
330
6F
100
AcDbEntity
  8
_4-B_予備
  6
Continuous
 62
    83
100
AcDbLine
 10
132.4134161623923
 20
61.71421503633609
 30
0.0
 11
132.7026785227452
 21
63.37217237241519
 31
0.0
  0
LINE
  5
19C
330
6F
100
AcDbEntity
  8
_4-B_予備
  6
Continuous
 62
    83
100
AcDbLine
 10
133.473404647161
 20
64.41520332349229
 30
0.0
 11
132.3306894367995
 21
64.6145718426739
 31
0.0
  0
LINE
  5
19D
330
6F
100
AcDbEntity
  8
_4-B_予備
  6
Continuous
 62
    83
100
AcDbLine
 10
133.280723116057
 20
64.15444558572303
 30
0.0
 11
132.4236867082859
 21
64.30397197510922
 31
0.0
  0
LINE
  5
19E
330
6F
100
AcDbEntity
  8
_4-B_予備
  6
Continuous
 62
    83
100
AcDbLine
 10
133.0880415849531
 20
63.89368784795374
 30
0.0
 11
132.5166839797723
 21
63.99337210754454
 31
0.0
  0
LINE
  5
19F
330
6F
100
AcDbEntity
  8
_4-B_予備
  6
Continuous
 62
    83
100
AcDbLine
 10
132.8953600538492
 20
63.63293011018446
 30
0.0
 11
132.6096812512587
 21
63.68277223997986
 31
0.0
  0
LINE
  5
1A0
330
6F
100
AcDbEntity
  8
_4-B_予備
  6
Continuous
 62
    83
100
AcDbLine
 10
127.5308690722731
 20
104.1400742253554
 30
0.0
 11
162.7570904606432
 21
104.1400742253554
 31
0.0
  0
ARC
  5
1A1
330
6F
100
AcDbEntity
  8
_4-B_予備
  6
Continuous
 62
    83
100
AcDbCircle
 10
127.8391694736616
 20
98.29612934030521
 30
0.0
 40
5.866112057322348
100
AcDbArc
 50
92.94299907033233
 51
151.2029425508389
  0
LINE
  5
1A2
330
6F
100
AcDbEntity
  8
_4-B_予備
  6
Continuous
 62
    83
100
AcDbLine
 10
122.6985111621943
 20
101.1218863705194
 30
0.0
 11
122.6985111621943
 21
67.01206980605471
 31
0.0
  0
LINE
  5
1A3
330
6F
100
AcDbEntity
  8
_4-B_予備
  6
DASHED1
 62
    83
100
AcDbLine
 10
163.9624563115579
 20
100.8573997150865
 30
0.0
 11
171.9187316373049
 21
101.8121527541762
 31
0.0
  0
LINE
  5
1A4
330
6F
100
AcDbEntity
  8
_4-B_予備
  6
DASHED1
 62
    83
100
AcDbLine
 10
171.9187316373049
 20
101.8121527541762
 30
0.0
 11
171.948282624039
 21
104.9676622671125
 31
0.0
  0
LINE
  5
1A5
330
6F
100
AcDbEntity
  8
_4-B_予備
  6
DASHED1
 62
    83
100
AcDbLine
 10
171.948282624039
 20
104.9676622671125
 30
0.0
 11
177.1215573822358
 21
105.5862059882012
 31
0.0
  0
LINE
  5
1A6
330
6F
100
AcDbEntity
  8
_4-B_予備
  6
DASHED1
 62
    83
100
AcDbLine
 10
144.6570960411863
 20
47.93839702961553
 30
0.0
 11
144.7973470725663
 21
47.93839702961553
 31
0.0
  0
LINE
  5
1A7
330
6F
100
AcDbEntity
  8
_5-B_5-B
  6
Continuous
 62
    83
100
AcDbLine
 10
122.6985111621943
 20
67.01206980605471
 30
0.0
 11
144.007502290915
 21
62.1506074998773
 31
0.0
  0
LINE
  5
1A8
330
6F
100
AcDbEntity
  8
_5-B_5-B
  6
DASHED1
 62
    83
100
AcDbLine
 10
144.007502290915
 20
62.1506074998773
 30
0.0
 11
144.7026746683039
 21
54.20056354855464
 31
0.0
  0
LINE
  5
1A9
330
6F
100
AcDbEntity
  8
_5-B_5-B
  6
DASHED1
 62
    83
100
AcDbLine
 10
143.7148500629447
 20
51.47813812909021
 30
0.0
 11
127.0168274591396
 21
50.33963658792169
 31
0.0
  0
LINE
  5
1AA
330
6F
100
AcDbEntity
  8
_5-B_5-B
  6
DASHED1
 62
    83
100
AcDbLine
 10
127.0168274591396
 20
50.33963658792169
 30
0.0
 11
106.2690998014278
 21
42.46119084313732
 31
0.0
  0
LINE
  5
1AB
330
6F
100
AcDbEntity
  8
_5-B_5-B
  6
DASHED1
 62
    83
100
AcDbLine
 10
144.7026746683039
 20
54.20056354855464
 30
0.0
 11
143.6934021986341
 21
51.4766757747054
 31
0.0
  0
LINE
  5
1AC
330
6F
100
AcDbEntity
  8
_5-E_文字
  6
Continuous
 62
     4
100
AcDbLine
 10
93.63480964837282
 20
234.2937436067702
 30
0.0
 11
78.4629584979139
 21
234.2937436067702
 31
0.0
  0
LINE
  5
1AD
330
6F
100
AcDbEntity
  8
_5-E_文字
  6
Continuous
 62
     4
100
AcDbLine
 10
108.0514869847638
 20
229.48818449464
 30
0.0
 11
93.63480964837282
 21
234.2937436067702
 31
0.0
  0
LINE
  5
1AE
330
6F
100
AcDbEntity
  8
_5-E_文字
  6
Continuous
 62
     4
100
AcDbLine
 10
50.38477763919986
 20
234.2937436067702
 30
0.0
 11
35.28159185821881
 21
230.17469293923
 31
0.0
  0
LINE
  5
1AF
330
6F
100
AcDbEntity
  8
_5-E_文字
  6
Continuous
 62
     4
100
AcDbLine
 10
120.4384871806277
 20
226.859056139815
 30
0.0
 11
140.0870553226372
 21
230.262745109297
 31
0.0
  0
LINE
  5
1B0
330
6F
100
AcDbEntity
  8
_5-E_文字
  6
Continuous
 62
     4
100
AcDbLine
 10
140.0870553226372
 20
230.262745109297
 30
0.0
 11
150.4528353660595
 21
233.6664340787789
 31
0.0
  0
LINE
  5
1B1
330
6F
100
AcDbEntity
  8
_5-E_文字
  6
Continuous
 62
     4
100
AcDbLine
 10
150.4528353660595
 20
233.6664340787789
 30
0.0
 11
161.2827548144112
 21
238.3078281280725
 31
0.0
  0
LINE
  5
1B2
330
6F
100
AcDbEntity
  8
_5-E_文字
  6
Continuous
 62
     4
100
AcDbLine
 10
186.3134496680291
 20
245.277878720211
 30
0.0
 11
160.0117192521449
 21
237.7630986013869
 31
0.0
  0
LINE
  5
1B3
330
6F
100
AcDbEntity
  8
_5-E_文字
  6
Continuous
 62
     4
100
AcDbLine
 10
120.4252647183682
 20
226.7982328134216
 30
0.0
 11
108.0514869847638
 21
229.48818449464
 31
0.0
  0
LINE
  5
1B4
330
6F
100
AcDbEntity
  8
_5-E_文字
  6
Continuous
 62
     4
100
AcDbLine
 10
37.91276591613991
 20
220.5270547268527
 30
0.0
 11
51.72395847583779
 21
224.2937436067702
 31
0.0
  0
LINE
  5
1B5
330
6F
100
AcDbEntity
  8
_5-E_文字
  6
Continuous
 62
     4
100
AcDbLine
 10
92.01203304668899
 20
224.2937436067702
 30
0.0
 11
105.4005214744716
 21
219.8309141308428
 31
0.0
  0
LINE
  5
1B6
330
6F
100
AcDbEntity
  8
_5-E_文字
  6
Continuous
 62
     4
100
AcDbLine
 10
165.2219478002028
 20
229.1163778278919
 30
0.0
 11
153.9890677382915
 21
224.302286372787
 31
0.0
  0
LINE
  5
1B7
330
6F
100
AcDbEntity
  8
_5-E_文字
  6
Continuous
 62
     4
100
AcDbLine
 10
153.9890677382915
 20
224.302286372787
 30
0.0
 11
142.5131991627837
 21
220.5340907211277
 31
0.0
  0
LINE
  5
1B8
330
6F
100
AcDbEntity
  8
_5-E_文字
  6
Continuous
 62
     4
100
AcDbLine
 10
189.0606609470029
 20
235.6626392438028
 30
0.0
 11
162.7589305311186
 21
228.1478591249787
 31
0.0
  0
LINE
  5
1B9
330
6F
100
AcDbEntity
  8
_5-E_文字
  6
Continuous
 62
     4
100
AcDbLine
 10
116.1500422151549
 20
217.4940617959116
 30
0.0
 11
105.4005214744716
 21
219.8309141308428
 31
0.0
  0
LINE
  5
1BA
330
6F
100
AcDbEntity
  8
_5-E_文字
  6
Continuous
 62
     4
100
AcDbLine
 10
124.0000493626814
 20
217.327088393551
 30
0.0
 11
142.5131991627837
 21
220.5340907211277
 31
0.0
  0
LINE
  5
1BB
330
6F
100
AcDbEntity
  8
_5-E_文字
  6
Continuous
 62
     4
100
AcDbLine
 10
116.1500422151549
 20
217.4940617959116
 30
0.0
 11
124.0000493626814
 21
217.327088393551
 31
0.0
  0
LINE
  5
1BC
330
6F
100
AcDbEntity
  8
_5-B_5-B
  6
DASHED1
 62
     4
100
AcDbLine
 10
166.0387213513786
 20
84.2354793016598
 30
0.0
 11
165.9738338666175
 21
84.26683754162231
 31
0.0
  0
LINE
  5
1BD
330
6F
100
AcDbEntity
  8
_5-E_文字
  6
Continuous
 62
     4
100
AcDbLine
 10
72.45021291233427
 20
234.2937436067702
 30
0.0
 11
50.38477763919986
 21
234.2937436067702
 31
0.0
  0
LINE
  5
1BE
330
6F
100
AcDbEntity
  8
_5-E_文字
  6
Continuous
 62
     4
100
AcDbLine
 10
51.72395847583779
 20
224.2937436067702
 30
0.0
 11
73.10236634713408
 21
224.2937436067702
 31
0.0
  0
LINE
  5
1BF
330
6F
100
AcDbEntity
  8
_5-E_文字
  6
Continuous
 62
     4
100
AcDbLine
 10
79.1151119327137
 20
224.2937436067702
 30
0.0
 11
92.01203304668899
 21
224.2937436067702
 31
0.0
  0
LINE
  5
1C0
330
6F
100
AcDbEntity
  8
_5-E_文字
  6
Continuous
 62
     4
100
AcDbLine
 10
165.3472529887117
 20
10.1054649204298
 30
0.0
 11
178.1727655796588
 21
10.1054649204298
 31
0.0
  0
LINE
  5
1C1
330
6F
100
AcDbEntity
  8
_5-E_文字
  6
Continuous
 62
     4
100
AcDbLine
 10
178.1727655796588
 20
10.1054649204298
 30
0.0
 11
178.1727655796588
 21
13.7986753523779
 31
0.0
  0
LINE
  5
1C2
330
6F
100
AcDbEntity
  8
_5-E_文字
  6
Continuous
 62
     4
100
AcDbLine
 10
178.1727655796588
 20
13.7986753523779
 30
0.0
 11
165.3472529887117
 21
13.7986753523779
 31
0.0
  0
LINE
  5
1C3
330
6F
100
AcDbEntity
  8
_5-E_文字
  6
Continuous
 62
     4
100
AcDbLine
 10
165.3472529887117
 20
13.7986753523779
 30
0.0
 11
165.3472529887117
 21
10.1054649204298
 31
0.0
  0
LINE
  5
1C4
330
6F
100
AcDbEntity
  8
_5-E_文字
  6
Continuous
 62
     4
100
AcDbLine
 10
140.9212616121066
 20
106.7922404581875
 30
0.0
 11
138.2059939182751
 21
129.4194712401175
 31
0.0
  0
LINE
  5
1C5
330
6F
100
AcDbEntity
  8
_5-E_文字
  6
Continuous
 62
     4
100
AcDbLine
 10
138.2059939182751
 20
129.4194712401175
 30
0.0
 11
138.9501156801067
 21
127.563054583338
 31
0.0
  0
LINE
  5
1C6
330
6F
100
AcDbEntity
  8
_5-E_文字
  6
Continuous
 62
     4
100
AcDbLine
 10
138.2059939182751
 20
129.4194712401175
 30
0.0
 11
137.9222139391403
 21
127.439706374422
 31
0.0
  0
CIRCLE
  5
1C7
330
6F
100
AcDbEntity
  8
_5-6_5-6
  6
Continuous
 62
     5
100
AcDbCircle
 10
186.4860786657884
 20
170.2113504095487
 30
0.0
 40
7.5
  0
ARC
  5
1C8
330
6F
100
AcDbEntity
  8
_5-6_5-6
  6
Continuous
 62
     5
100
AcDbCircle
 10
185.3538950629864
 20
157.2704326131925
 30
0.0
 40
7.5
100
AcDbArc
 50
54.99999999999998
 51
114.9999999999999
  0
LINE
  5
1C9
330
6F
100
AcDbEntity
  8
_5-6_5-6
  6
Continuous
 62
     5
100
AcDbLine
 10
182.184252824535
 20
164.0676807179129
 30
0.0
 11
187.1397467363959
 21
177.6828106452368
 31
0.0
  0
LINE
  5
1CA
330
6F
100
AcDbEntity
  8
_5-6_5-6
  6
Continuous
 62
     5
100
AcDbLine
 10
189.655713060223
 20
163.4140126473055
 30
0.0
 11
187.1397467363958
 21
177.6828106452368
 31
0.0
  0
LINE
  5
1CB
330
6F
100
AcDbEntity
  8
_5-6_5-6
  6
Continuous
 62
     5
100
AcDbLine
 10
186.9804712565906
 20
179.0260425332912
 30
0.0
 11
187.1112048707121
 21
180.5203345804288
 31
0.0
  0
LINE
  5
1CC
330
6F
100
AcDbEntity
  8
_5-6_5-6
  6
Continuous
 62
     5
100
AcDbLine
 10
187.1112048707121
 20
180.5203345804288
 30
0.0
 11
188.1759048943007
 21
178.921455641994
 31
0.0
  0
LINE
  5
1CD
330
6F
100
AcDbEntity
  8
_5-6_5-6
  6
Continuous
 62
     5
100
AcDbLine
 10
188.1759048943007
 20
178.921455641994
 30
0.0
 11
188.3066385084221
 21
180.4157476891316
 31
0.0
  0
LINE
  5
1CE
330
6F
100
AcDbEntity
  8
_5-4_5-4
  6
Continuous
 62
     5
100
AcDbLine
 10
120.7011666720132
 20
60.82622704224704
 30
0.0
 11
99.25129311460528
 21
61.98353506756388
 31
0.0
  0
LINE
  5
1CF
330
6F
100
AcDbEntity
  8
_5-4_5-4
  6
Continuous
 62
     5
100
AcDbLine
 10
99.25129311460528
 20
61.98353506756388
 30
0.0
 11
73.3397004398521
 21
66.74075766038486
 31
0.0
  0
LINE
  5
1D0
330
6F
100
AcDbEntity
  8
_5-4_5-4
  6
Continuous
 62
     5
100
AcDbLine
 10
87.01938946928619
 20
177.7080096098112
 30
0.0
 11
82.56877026590592
 21
173.4741349428359
 31
0.0
  0
LINE
  5
1D1
330
6F
100
AcDbEntity
  8
_5-4_5-4
  6
Continuous
 62
     5
100
AcDbLine
 10
70.39723069403158
 20
172.680363808976
 30
0.0
 11
66.86480798805212
 21
176.3936216558173
 31
0.0
  0
LINE
  5
1D2
330
6F
100
AcDbEntity
  8
_5-4_5-4
  6
Continuous
 62
     5
100
AcDbLine
 10
161.2433850272231
 20
182.5485529745785
 30
0.0
 11
87.01938946928619
 21
177.7080096098112
 31
0.0
  0
LINE
  5
1D3
330
6F
100
AcDbEntity
  8
_5-4_5-4
  6
Continuous
 62
     5
100
AcDbLine
 10
165.0022143864151
 20
178.8156352927005
 30
0.0
 11
161.6088835365637
 21
120.5826025962778
 31
0.0
  0
LINE
  5
1D4
330
6F
100
AcDbEntity
  8
_5-4_5-4
  6
Continuous
 62
     5
100
AcDbLine
 10
161.2433850272231
 20
182.5485529745785
 30
0.0
 11
165.0022143864151
 21
178.8156352927005
 31
0.0
  0
LINE
  5
1D5
330
6F
100
AcDbEntity
  8
_5-4_5-4
  6
Continuous
 62
     5
100
AcDbLine
 10
173.0463545348774
 20
179.3402366554836
 30
0.0
 11
169.5953357204534
 21
120.1172194053021
 31
0.0
  0
LINE
  5
1D6
330
6F
100
AcDbEntity
  8
_5-4_5-4
  6
Continuous
 62
     5
100
AcDbLine
 10
177.2705670850452
 20
183.5937711574955
 30
0.0
 11
189.2133585852068
 21
184.3726244072883
 31
0.0
  0
LINE
  5
1D7
330
6F
100
AcDbEntity
  8
_5-4_5-4
  6
Continuous
 62
     5
100
AcDbLine
 10
173.0463545348774
 20
179.3402366554836
 30
0.0
 11
177.2705670850452
 21
183.5937711574955
 31
0.0
  0
LINE
  5
1D8
330
6F
100
AcDbEntity
  8
_5-4_5-4
  6
Continuous
 62
     5
100
AcDbLine
 10
80.43856089444169
 20
265.4657738690882
 30
0.0
 11
183.4865735637333
 21
272.1860854102452
 31
0.0
  0
LINE
  5
1D9
330
6F
100
AcDbEntity
  8
_5-4_5-4
  6
Continuous
 62
     5
100
AcDbLine
 10
76.18673152969484
 20
269.196986413701
 30
0.0
 11
80.43856089444169
 21
265.4657738690882
 31
0.0
  0
LINE
  5
1DA
330
6F
100
AcDbEntity
  8
_5-4_5-4
  6
Continuous
 62
     5
100
AcDbLine
 10
80.95917771457562
 20
257.4827319597284
 30
0.0
 11
184.0071903838673
 21
264.2030435008855
 31
0.0
  0
LINE
  5
1DB
330
6F
100
AcDbEntity
  8
_5-4_5-4
  6
Continuous
 62
     5
100
AcDbLine
 10
80.95917771457562
 20
257.4827319597284
 30
0.0
 11
77.22796516996277
 21
253.2309025949816
 31
0.0
  0
LINE
  5
1DC
330
6F
100
AcDbEntity
  8
_5-4_5-4
  6
Continuous
 62
     5
100
AcDbLine
 10
77.22796516996277
 20
253.2309025949816
 30
0.0
 11
81.6532081411014
 21
185.375046365424
 31
0.0
  0
LINE
  5
1DD
330
6F
100
AcDbEntity
  8
_5-4_5-4
  6
Continuous
 62
     5
100
AcDbLine
 10
81.6532081411014
 20
185.375046365424
 30
0.0
 11
188.6927417650728
 21
192.3556663166479
 31
0.0
  0
LINE
  5
1DE
330
6F
100
AcDbEntity
  8
_5-4_5-4
  6
Continuous
 62
     5
100
AcDbLine
 10
66.86480798805212
 20
176.3936216558173
 30
0.0
 11
20.36025692310176
 21
173.3608113847344
 31
0.0
  0
LINE
  5
1DF
330
6F
100
AcDbEntity
  8
_5-4_5-4
  6
Continuous
 62
     5
100
AcDbLine
 10
19.83964010296779
 20
181.343853294094
 30
0.0
 11
75.66592670908161
 21
184.9845837503235
 31
0.0
  0
LINE
  5
1E0
330
6F
100
AcDbEntity
  8
_5-4_5-4
  6
Continuous
 62
     5
100
AcDbLine
 10
76.18673152969484
 20
269.196986413701
 30
0.0
 11
75.10128694759955
 21
285.8409926271852
 31
0.0
  0
LINE
  5
1E1
330
6F
100
AcDbEntity
  8
_5-4_5-4
  6
Continuous
 62
     5
100
AcDbLine
 10
69.11400551557978
 20
285.4505300120848
 30
0.0
 11
75.66592670908161
 21
184.9845837503235
 31
0.0
  0
LINE
  5
1E2
330
6F
100
AcDbEntity
  8
_5-4_5-4
  6
Continuous
 62
     5
100
AcDbLine
 10
70.39723069403158
 20
172.680363808976
 30
0.0
 11
54.69615229661389
 21
36.78510501924817
 31
0.0
  0
LINE
  5
1E3
330
6F
100
AcDbEntity
  8
_5-4_5-4
  6
Continuous
 62
     5
100
AcDbLine
 10
73.3397004398521
 20
66.74075766038486
 30
0.0
 11
70.70375848169089
 21
70.78062522669708
 31
0.0
  0
LINE
  5
1E4
330
6F
100
AcDbEntity
  8
_5-4_5-4
  6
Continuous
 62
     5
100
AcDbLine
 10
82.56877026590592
 20
173.4741349428359
 30
0.0
 11
70.70375848169089
 21
70.78062522669707
 31
0.0
  0
LINE
  5
1E5
330
6F
100
AcDbEntity
  8
_5-4_5-4
  6
Continuous
 62
     5
100
AcDbLine
 10
73.31545849576213
 20
58.61149817136634
 30
0.0
 11
98.30965330342609
 21
54.02270466411736
 31
0.0
  0
LINE
  5
1E6
330
6F
100
AcDbEntity
  8
_5-4_5-4
  6
Continuous
 62
     5
100
AcDbLine
 10
68.9221163021337
 20
55.36023696206388
 30
0.0
 11
66.61685106733881
 21
35.40781027314703
 31
0.0
  0
LINE
  5
1E7
330
6F
100
AcDbEntity
  8
_5-4_5-4
  6
Continuous
 62
     5
100
AcDbLine
 10
73.31545849576213
 20
58.61149817136634
 30
0.0
 11
68.9221163021337
 21
55.36023696206388
 31
0.0
  0
LINE
  5
1E8
330
6F
100
AcDbEntity
  8
_5-4_5-4
  6
Continuous
 62
     5
100
AcDbLine
 10
169.5953357204534
 20
120.1172194053021
 30
0.0
 11
170.2444624640897
 21
115.7643958643029
 31
0.0
  0
LINE
  5
1E9
330
6F
100
AcDbEntity
  8
_5-4_5-4
  6
Continuous
 62
     5
100
AcDbLine
 10
161.6088835365637
 20
120.5826025962778
 30
0.0
 11
162.3014477561944
 21
114.8112340993554
 31
0.0
  0
LINE
  5
1EA
330
6F
100
AcDbEntity
  8
_5-4_5-4
  6
Continuous
 62
     5
100
AcDbLine
 10
98.30965330342609
 20
54.02270466411736
 30
0.0
 11
121.0007446431855
 21
52.83183819017106
 31
0.0
  0
ENDSEC
  0
SECTION
  2
OBJECTS
  0
DICTIONARY
  5
C
330
0
100
AcDbDictionary
281
     1
  3
ACAD_COLOR
350
62
  3
ACAD_DETAILVIEWSTYLE
350
69
  3
ACAD_GROUP
350
D
  3
ACAD_LAYOUT
350
61
  3
ACAD_MATERIAL
350
10
  3
ACAD_MLEADERSTYLE
350
65
  3
ACAD_MLINESTYLE
350
5E
  3
ACAD_PLOTSETTINGS
350
60
  3
ACAD_PLOTSTYLENAME
350
E
  3
ACAD_SCALELIST
350
42
  3
ACAD_SECTIONVIEWSTYLE
350
67
  3
ACAD_TABLESTYLE
350
63
  3
ACAD_VISUALSTYLE
350
29
  3
ACDB_RECOMPOSE_DATA
350
1F7
  3
AcDbVariableDictionary
350
1EB
  0
DICTIONARY
  5
62
102
{ACAD_REACTORS
330
C
102
}
330
C
100
AcDbDictionary
281
     1
  0
DICTIONARY
  5
69
102
{ACAD_REACTORS
330
C
102
}
330
C
100
AcDbDictionary
281
     1
  3
Imperial24
350
6A
  0
DICTIONARY
  5
D
102
{ACAD_REACTORS
330
C
102
}
330
C
100
AcDbDictionary
281
     1
  0
DICTIONARY
  5
61
102
{ACAD_REACTORS
330
C
102
}
330
C
100
AcDbDictionary
281
     1
  3
Layout1
350
6E
  3
Model
350
72
  0
DICTIONARY
  5
10
102
{ACAD_REACTORS
330
C
102
}
330
C
100
AcDbDictionary
281
     1
  3
ByBlock
350
19
  3
ByLayer
350
11
  3
Global
350
21
  0
DICTIONARY
  5
65
102
{ACAD_REACTORS
330
C
102
}
330
C
100
AcDbDictionary
281
     1
  3
Standard
350
66
  0
DICTIONARY
  5
5E
102
{ACAD_REACTORS
330
C
102
}
330
C
100
AcDbDictionary
281
     1
  3
Standard
350
5F
  0
DICTIONARY
  5
60
102
{ACAD_REACTORS
330
C
102
}
330
C
100
AcDbDictionary
281
     1
  0
ACDBDICTIONARYWDFLT
  5
E
102
{ACAD_REACTORS
330
C
102
}
330
C
100
AcDbDictionary
281
     1
  3
Normal
350
F
100
AcDbDictionaryWithDefault
340
F
  0
DICTIONARY
  5
42
102
{ACAD_REACTORS
330
C
102
}
330
C
100
AcDbDictionary
281
     1
  3
A0
350
43
  3
A1
350
44
  3
A2
350
45
  3
A3
350
46
  3
A4
350
47
  3
A5
350
48
  3
A6
350
49
  3
A7
350
4A
  3
A8
350
4B
  3
A9
350
4C
  3
B0
350
4D
  3
B1
350
4E
  3
B2
350
4F
  3
B3
350
50
  3
B4
350
51
  3
B5
350
52
  3
B6
350
53
  0
DICTIONARY
  5
67
102
{ACAD_REACTORS
330
C
102
}
330
C
100
AcDbDictionary
281
     1
  3
Imperial24
350
68
  0
DICTIONARY
  5
63
102
{ACAD_REACTORS
330
C
102
}
330
C
100
AcDbDictionary
281
     1
  3
Standard
350
64
  0
DICTIONARY
  5
29
102
{ACAD_REACTORS
330
C
102
}
330
C
100
AcDbDictionary
281
     1
  3
2dWireframe
350
2F
  3
Basic
350
2E
  3
Brighten
350
35
  3
ColorChange
350
39
  3
Conceptual
350
32
  3
Dim
350
34
  3
EdgeColorOff
350
41
  3
Facepattern
350
38
  3
Flat
350
2A
  3
FlatWithEdges
350
2B
  3
Gouraud
350
2C
  3
GouraudWithEdges
350
2D
  3
Hidden
350
31
  3
JitterOff
350
3F
  3
Linepattern
350
37
  3
OverhangOff
350
40
  3
Realistic
350
33
  3
Shaded
350
3E
  3
Shaded with edges
350
3D
  3
Shades of Gray
350
3A
  3
Sketchy
350
3B
  3
Thicken
350
36
  3
Wireframe
350
30
  3
X-Ray
350
3C
  0
XRECORD
  5
1F7
102
{ACAD_REACTORS
330
C
102
}
330
C
100
AcDbXrecord
280
     1
 90
        1
330
64
  0
DICTIONARY
  5
1EB
102
{ACAD_REACTORS
330
C
102
}
330
C
100
AcDbDictionary
281
     1
  3
CANNOSCALE
350
1F1
  3
CMLEADERSTYLE
350
1ED
  3
CTABLESTYLE
350
1EC
  3
CVIEWDETAILSTYLE
350
1EE
  3
CVIEWSECTIONSTYLE
350
1EF
  3
LAYEREVAL
350
1F3
  3
LAYERNOTIFY
350
1F4
  3
LIGHTINGUNITS
350
1F2
  3
MSLTSCALE
350
1F0
  0
ACDBDETAILVIEWSTYLE
  5
6A
102
{ACAD_REACTORS
330
69
102
}
330
69
100
AcDbModelDocViewStyle
 70
     0
  3
Imperial24
290
     0
300
Imperial24
 90
        0
100
AcDbDetailViewStyle
 70
     0
 71
     0
 90
        3
 71
     1
340
55
 62
   256
 40
0.24
340
0
 62
   256
 40
0.24
300

 40
0.36
280
     3
 71
     2
340
5C
 90
       25
 62
   256
 71
     3
340
55
 62
   256
 40
0.24
 90
        1
 40
0.75
 90
        1
300
%<\AcVar ViewType \f "%tc1">% %<\AcVar ViewDetailId>%\PSCALE %<\AcVar ViewScale \f "%sn">%
 71
     4
340
5C
 90
       25
 62
   256
340
5C
 90
       25
 62
   256
280
     0
  0
LAYOUT
  5
6E
102
{ACAD_REACTORS
330
61
102
}
330
61
100
AcDbPlotSettings
  1

  2

  4

  6

 40
0.0
 41
0.0
 42
0.0
 43
0.0
 44
0.0
 45
0.0
 46
0.0
 47
0.0
 48
0.0
 49
0.0
140
0.0
141
0.0
142
1.0
143
1.0
 70
   688
 72
     0
 73
     0
 74
     5
  7

 75
    16
147
1.0
 76
     0
 77
     2
 78
   300
148
0.0
149
0.0
100
AcDbLayout
  1
Layout1
 70
     1
 71
     1
 10
0.0
 20
0.0
 11
12.0
 21
9.0
 12
0.0
 22
0.0
 32
0.0
 14
0.0
 24
0.0
 34
0.0
 15
0.0
 25
0.0
 35
0.0
146
0.0
 13
0.0
 23
0.0
 33
0.0
 16
1.0
 26
0.0
 36
0.0
 17
0.0
 27
1.0
 37
0.0
 76
     0
330
6B
  0
LAYOUT
  5
72
102
{ACAD_REACTORS
330
61
102
}
330
61
100
AcDbPlotSettings
  1

  2

  4

  6

 40
0.0
 41
0.0
 42
0.0
 43
0.0
 44
0.0
 45
0.0
 46
0.0
 47
0.0
 48
0.0
 49
0.0
140
0.0
141
0.0
142
1.0
143
1.0
 70
  1712
 72
     0
 73
     0
 74
     0
  7

 75
     0
147
1.0
 76
     0
 77
     2
 78
   300
148
0.0
149
0.0
100
AcDbLayout
  1
Model
 70
     1
 71
     0
 10
0.0
 20
0.0
 11
12.0
 21
9.0
 12
0.0
 22
0.0
 32
0.0
 14
0.0
 24
0.0
 34
0.0
 15
0.0
 25
0.0
 35
0.0
146
0.0
 13
0.0
 23
0.0
 33
0.0
 16
1.0
 26
0.0
 36
0.0
 17
0.0
 27
1.0
 37
0.0
 76
     0
330
6F
  0
MATERIAL
  5
19
102
{ACAD_XDICTIONARY
360
1A
102
}
102
{ACAD_REACTORS
330
10
102
}
330
10
100
AcDbMaterial
  1
ByBlock
 72
     0
 43
0.0208333333333333
 43
0.0
 43
0.0
 43
0.0
 43
0.0
 43
0.0208333333333333
 43
0.0
 43
0.0
 43
0.0
 43
0.0
 43
1.0
 43
0.0
 43
0.0
 43
0.0
 43
0.0
 43
1.0
 77
     0
 47
0.0208333333333333
 47
0.0
 47
0.0
 47
0.0
 47
0.0
 47
0.0208333333333333
 47
0.0
 47
0.0
 47
0.0
 47
0.0
 47
1.0
 47
0.0
 47
0.0
 47
0.0
 47
0.0
 47
1.0
171
     0
 49
0.0208333333333333
 49
0.0
 49
0.0
 49
0.0
 49
0.0
 49
0.0208333333333333
 49
0.0
 49
0.0
 49
0.0
 49
0.0
 49
1.0
 49
0.0
 49
0.0
 49
0.0
 49
0.0
 49
1.0
175
     0
142
0.0208333333333333
142
0.0
142
0.0
142
0.0
142
0.0
142
0.0208333333333333
142
0.0
142
0.0
142
0.0
142
0.0
142
1.0
142
0.0
142
0.0
142
0.0
142
0.0
142
1.0
179
     0
144
0.0208333333333333
144
0.0
144
0.0
144
0.0
144
0.0
144
0.0208333333333333
144
0.0
144
0.0
144
0.0
144
0.0
144
1.0
144
0.0
144
0.0
144
0.0
144
0.0
144
1.0
147
0.0208333333333333
147
0.0
147
0.0
147
0.0
147
0.0
147
0.0208333333333333
147
0.0
147
0.0
147
0.0
147
0.0
147
1.0
147
0.0
147
0.0
147
0.0
147
0.0
147
1.0
  0
MATERIAL
  5
11
102
{ACAD_XDICTIONARY
360
12
102
}
102
{ACAD_REACTORS
330
10
102
}
330
10
100
AcDbMaterial
  1
ByLayer
 72
     0
 43
0.0208333333333333
 43
0.0
 43
0.0
 43
0.0
 43
0.0
 43
0.0208333333333333
 43
0.0
 43
0.0
 43
0.0
 43
0.0
 43
1.0
 43
0.0
 43
0.0
 43
0.0
 43
0.0
 43
1.0
 77
     0
 47
0.0208333333333333
 47
0.0
 47
0.0
 47
0.0
 47
0.0
 47
0.0208333333333333
 47
0.0
 47
0.0
 47
0.0
 47
0.0
 47
1.0
 47
0.0
 47
0.0
 47
0.0
 47
0.0
 47
1.0
171
     0
 49
0.0208333333333333
 49
0.0
 49
0.0
 49
0.0
 49
0.0
 49
0.0208333333333333
 49
0.0
 49
0.0
 49
0.0
 49
0.0
 49
1.0
 49
0.0
 49
0.0
 49
0.0
 49
0.0
 49
1.0
175
     0
142
0.0208333333333333
142
0.0
142
0.0
142
0.0
142
0.0
142
0.0208333333333333
142
0.0
142
0.0
142
0.0
142
0.0
142
1.0
142
0.0
142
0.0
142
0.0
142
0.0
142
1.0
179
     0
144
0.0208333333333333
144
0.0
144
0.0
144
0.0
144
0.0
144
0.0208333333333333
144
0.0
144
0.0
144
0.0
144
0.0
144
1.0
144
0.0
144
0.0
144
0.0
144
0.0
144
1.0
147
0.0208333333333333
147
0.0
147
0.0
147
0.0
147
0.0
147
0.0208333333333333
147
0.0
147
0.0
147
0.0
147
0.0
147
1.0
147
0.0
147
0.0
147
0.0
147
0.0
147
1.0
  0
MATERIAL
  5
21
102
{ACAD_XDICTIONARY
360
22
102
}
102
{ACAD_REACTORS
330
10
102
}
330
10
100
AcDbMaterial
  1
Global
 72
     0
 43
0.0208333333333333
 43
0.0
 43
0.0
 43
0.0
 43
0.0
 43
0.0208333333333333
 43
0.0
 43
0.0
 43
0.0
 43
0.0
 43
1.0
 43
0.0
 43
0.0
 43
0.0
 43
0.0
 43
1.0
 77
     0
 47
0.0208333333333333
 47
0.0
 47
0.0
 47
0.0
 47
0.0
 47
0.0208333333333333
 47
0.0
 47
0.0
 47
0.0
 47
0.0
 47
1.0
 47
0.0
 47
0.0
 47
0.0
 47
0.0
 47
1.0
171
     0
 49
0.0208333333333333
 49
0.0
 49
0.0
 49
0.0
 49
0.0
 49
0.0208333333333333
 49
0.0
 49
0.0
 49
0.0
 49
0.0
 49
1.0
 49
0.0
 49
0.0
 49
0.0
 49
0.0
 49
1.0
175
     0
142
0.0208333333333333
142
0.0
142
0.0
142
0.0
142
0.0
142
0.0208333333333333
142
0.0
142
0.0
142
0.0
142
0.0
142
1.0
142
0.0
142
0.0
142
0.0
142
0.0
142
1.0
179
     0
144
0.0208333333333333
144
0.0
144
0.0
144
0.0
144
0.0
144
0.0208333333333333
144
0.0
144
0.0
144
0.0
144
0.0
144
1.0
144
0.0
144
0.0
144
0.0
144
0.0
144
1.0
147
0.0208333333333333
147
0.0
147
0.0
147
0.0
147
0.0
147
0.0208333333333333
147
0.0
147
0.0
147
0.0
147
0.0
147
1.0
147
0.0
147
0.0
147
0.0
147
0.0
147
1.0
  0
MLEADERSTYLE
  5
66
102
{ACAD_REACTORS
330
65
102
}
330
65
100
AcDbMLeaderStyle
179
     2
170
     2
171
     1
172
     0
 90
        2
 40
0.0
 41
0.0
173
     1
 91
-1056964608
340
5A
 92
       -2
290
     1
 42
0.09
291
     1
 43
0.36
  3
Standard
 44
0.18
300

342
55
174
     1
178
     6
175
     1
176
     0
 93
-1056964608
 45
0.18
292
     0
297
     0
 46
0.18
 94
-1056964608
 47
1.0
 49
1.0
140
1.0
293
     1
141
0.0
294
     1
177
     0
142
1.0
295
     0
296
     0
143
0.125
271
     0
272
     9
273
     9
298
     0
  0
MLINESTYLE
  5
5F
102
{ACAD_REACTORS
330
5E
102
}
330
5E
100
AcDbMlineStyle
  2
STANDARD
 70
     0
  3

 62
   256
 51
90.0
 52
90.0
 71
     2
 49
0.5
 62
   256
  6
BYLAYER
 49
-0.5
 62
   256
  6
BYLAYER
  0
ACDBPLACEHOLDER
  5
F
102
{ACAD_REACTORS
330
E
102
}
330
E
  0
SCALE
  5
43
102
{ACAD_REACTORS
330
42
102
}
330
42
100
AcDbScale
 70
     0
300
1:1
140
1.0
141
1.0
290
     1
  0
SCALE
  5
44
102
{ACAD_REACTORS
330
42
102
}
330
42
100
AcDbScale
 70
     0
300
1/128" = 1'-0"
140
0.0078125
141
12.0
290
     0
  0
SCALE
  5
45
102
{ACAD_REACTORS
330
42
102
}
330
42
100
AcDbScale
 70
     0
300
1/64" = 1'-0"
140
0.015625
141
12.0
290
     0
  0
SCALE
  5
46
102
{ACAD_REACTORS
330
42
102
}
330
42
100
AcDbScale
 70
     0
300
1/32" = 1'-0"
140
0.03125
141
12.0
290
     0
  0
SCALE
  5
47
102
{ACAD_REACTORS
330
42
102
}
330
42
100
AcDbScale
 70
     0
300
1/16" = 1'-0"
140
0.0625
141
12.0
290
     0
  0
SCALE
  5
48
102
{ACAD_REACTORS
330
42
102
}
330
42
100
AcDbScale
 70
     0
300
3/32" = 1'-0"
140
0.09375
141
12.0
290
     0
  0
SCALE
  5
49
102
{ACAD_REACTORS
330
42
102
}
330
42
100
AcDbScale
 70
     0
300
1/8" = 1'-0"
140
0.125
141
12.0
290
     0
  0
SCALE
  5
4A
102
{ACAD_REACTORS
330
42
102
}
330
42
100
AcDbScale
 70
     0
300
3/16" = 1'-0"
140
0.1875
141
12.0
290
     0
  0
SCALE
  5
4B
102
{ACAD_REACTORS
330
42
102
}
330
42
100
AcDbScale
 70
     0
300
1/4" = 1'-0"
140
0.25
141
12.0
290
     0
  0
SCALE
  5
4C
102
{ACAD_REACTORS
330
42
102
}
330
42
100
AcDbScale
 70
     0
300
3/8" = 1'-0"
140
0.375
141
12.0
290
     0
  0
SCALE
  5
4D
102
{ACAD_REACTORS
330
42
102
}
330
42
100
AcDbScale
 70
     0
300
1/2" = 1'-0"
140
0.5
141
12.0
290
     0
  0
SCALE
  5
4E
102
{ACAD_REACTORS
330
42
102
}
330
42
100
AcDbScale
 70
     0
300
3/4" = 1'-0"
140
0.75
141
12.0
290
     0
  0
SCALE
  5
4F
102
{ACAD_REACTORS
330
42
102
}
330
42
100
AcDbScale
 70
     0
300
1" = 1'-0"
140
1.0
141
12.0
290
     0
  0
SCALE
  5
50
102
{ACAD_REACTORS
330
42
102
}
330
42
100
AcDbScale
 70
     0
300
1-1/2" = 1'-0"
140
1.5
141
12.0
290
     0
  0
SCALE
  5
51
102
{ACAD_REACTORS
330
42
102
}
330
42
100
AcDbScale
 70
     0
300
3" = 1'-0"
140
3.0
141
12.0
290
     0
  0
SCALE
  5
52
102
{ACAD_REACTORS
330
42
102
}
330
42
100
AcDbScale
 70
     0
300
6" = 1'-0"
140
6.0
141
12.0
290
     0
  0
SCALE
  5
53
102
{ACAD_REACTORS
330
42
102
}
330
42
100
AcDbScale
 70
     0
300
1'-0" = 1'-0"
140
12.0
141
12.0
290
     0
  0
ACDBSECTIONVIEWSTYLE
  5
68
102
{ACAD_REACTORS
330
67
102
}
330
67
100
AcDbModelDocViewStyle
 70
     0
  3
Imperial24
290
     0
300
Imperial24
 90
        0
100
AcDbSectionViewStyle
 70
     0
 71
     0
 90
       78
 71
     1
340
55
 62
   256
 40
0.24
340
0
340
0
 62
   256
 40
0.24
300
I, O, Q, S, X, Z
 40
0.48
 90
        3
 40
0.18
 90
        1
 71
     2
340
5C
 90
       25
 62
   256
340
5C
 90
       50
 62
   256
 40
0.24
 40
0.0
 40
0.24
 71
     3
340
55
 62
   256
 40
0.24
 90
        1
 40
0.75
 90
        1
300
%<\AcVar ViewType \f "%tc1">% %<\AcVar ViewSectionStartId>%-%<\AcVar ViewSectionEndId>%\PSCALE %<\AcVar ViewScale \f "%sn">%
 71
     4
 62
   256
 62
   257
300
ANSI31
 40
1.0
 90
        0
290
     0
290
     0
 90
        6
 40
0.0
 40
1.570796326794896
 40
0.2617993877991494
 40
1.308996938995747
 40
-0.2617993877991494
 40
1.832595714594046
  0
TABLESTYLE
  5
64
102
{ACAD_XDICTIONARY
360
1F5
102
}
102
{ACAD_REACTORS
330
63
102
}
330
63
100
AcDbTableStyle
280
     0
  3
Standard
 70
     0
 71
     0
 40
0.06
 41
0.06
280
     0
281
     0
  7
STANDARD
140
0.18
170
     2
 62
     0
 63
     7
283
     0
 90
      512
 91
        0
  1

274
    -2
284
     1
 64
     0
275
    -2
285
     1
 65
     0
276
    -2
286
     1
 66
     0
277
    -2
287
     1
 67
     0
278
    -2
288
     1
 68
     0
279
    -2
289
     1
 69
     0
  7
STANDARD
140
0.25
170
     5
 62
     0
 63
     7
283
     0
 90
      512
 91
        0
  1

274
    -2
284
     1
 64
     0
275
    -2
285
     1
 65
     0
276
    -2
286
     1
 66
     0
277
    -2
287
     1
 67
     0
278
    -2
288
     1
 68
     0
279
    -2
289
     1
 69
     0
  7
STANDARD
140
0.18
170
     5
 62
     0
 63
     7
283
     0
 90
      512
 91
        0
  1

274
    -2
284
     1
 64
     0
275
    -2
285
     1
 65
     0
276
    -2
286
     1
 66
     0
277
    -2
287
     1
 67
     0
278
    -2
288
     1
 68
     0
279
    -2
289
     1
 69
     0
  0
VISUALSTYLE
  5
2F
102
{ACAD_REACTORS
330
29
102
}
330
29
100
AcDbVisualStyle
  2
2dWireframe
 70
     4
177
     3
291
     0
 70
    58
 90
        0
176
     1
 90
        2
176
     1
 90
        0
176
     1
 90
        0
176
     1
 40
0.6
176
     1
 40
30.0
176
     1
 62
     7
420
 16777215
176
     1
 90
        1
176
     1
 90
        4
176
     1
 62
     7
176
     1
 62
   257
176
     1
 90
        1
176
     1
 90
        1
176
     1
 40
1.0
176
     1
 90
        0
176
     1
 62
   257
176
     1
 40
1.0
176
     1
 90
        1
176
     1
 90
        6
176
     1
 90
        2
176
     1
 62
     7
176
     1
 90
        5
176
     1
 90
        0
176
     1
 90
        0
176
     1
290
     0
176
     1
 90
        1
176
     1
 40
0.0
176
     1
 90
        0
176
     1
290
     1
176
     1
290
     1
176
     1
290
     0
176
     1
290
     0
176
     1
290
     0
176
     1
290
     0
176
     1
290
     0
176
     1
290
     0
176
     1
290
     0
176
     1
 90
       50
176
     1
 40
0.0
176
     1
 40
1.0
176
     1
 90
        0
176
     1
 62
    18
420
        0
176
     1
 90
       50
176
     1
 90
        3
176
     1
 62
     5
420
      255
176
     1
290
     0
176
     1
 90
       50
176
     1
 90
       50
176
     1
 90
       50
176
     1
290
     0
176
     1
 90
       50
176
     1
 62
   256
176
     0
 40
1.0
176
     0
 90
        2
176
     1
  1
strokes_ogs.tif
176
     1
290
     0
176
     1
 40
1.0
176
     1
 40
1.0
176
     1
  0
VISUALSTYLE
  5
2E
102
{ACAD_REACTORS
330
29
102
}
330
29
100
AcDbVisualStyle
  2
Basic
 70
     7
177
     3
291
     1
 70
    58
 90
        1
176
     1
 90
        0
176
     1
 90
        1
176
     1
 90
        0
176
     1
 40
0.6
176
     1
 40
30.0
176
     1
 62
     7
420
 16777215
176
     1
 90
        0
176
     1
 90
        4
176
     1
 62
     7
176
     1
 62
   257
176
     1
 90
        1
176
     1
 90
        1
176
     1
 40
1.0
176
     1
 90
        8
176
     1
 62
     7
176
     1
 40
1.0
176
     1
 90
        1
176
     1
 90
        6
176
     1
 90
        2
176
     1
 62
     7
176
     1
 90
        5
176
     1
 90
        0
176
     1
 90
        0
176
     1
290
     0
176
     1
 90
        1
176
     1
 40
0.0
176
     1
 90
        0
176
     1
290
     0
176
     1
290
     1
176
     1
290
     1
176
     1
290
     0
176
     1
290
     0
176
     1
290
     0
176
     1
290
     0
176
     1
290
     0
176
     1
290
     0
176
     1
 90
       50
176
     1
 40
0.0
176
     1
 40
1.0
176
     1
 90
        0
176
     1
 62
    18
420
        0
176
     1
 90
       50
176
     1
 90
        3
176
     1
 62
     5
420
      255
176
     1
290
     0
176
     1
 90
       50
176
     1
 90
       50
176
     1
 90
       50
176
     1
290
     0
176
     1
 90
       50
176
     1
 62
   256
176
     0
 40
1.0
176
     0
 90
        2
176
     1
  1
strokes_ogs.tif
176
     1
290
     0
176
     1
 40
1.0
176
     1
 40
1.0
176
     1
  0
VISUALSTYLE
  5
35
102
{ACAD_REACTORS
330
29
102
}
330
29
100
AcDbVisualStyle
  2
Brighten
 70
    12
177
     3
291
     1
 70
    58
 90
        2
176
     1
 90
        2
176
     1
 90
        0
176
     1
 90
        0
176
     1
 40
0.6
176
     1
 40
30.0
176
     1
 62
     7
420
 16777215
176
     1
 90
        1
176
     1
 90
        4
176
     1
 62
     7
176
     1
 62
   257
176
     1
 90
        1
176
     1
 90
        1
176
     1
 40
1.0
176
     1
 90
        8
176
     1
 62
     7
176
     1
 40
1.0
176
     1
 90
        1
176
     1
 90
        6
176
     1
 90
        2
176
     1
 62
     7
176
     1
 90
        5
176
     1
 90
        0
176
     1
 90
        0
176
     1
290
     0
176
     1
 90
        1
176
     1
 40
50.0
176
     1
 90
        0
176
     1
290
     0
176
     1
290
     1
176
     1
290
     1
176
     1
290
     0
176
     1
290
     0
176
     1
290
     0
176
     1
290
     0
176
     1
290
     0
176
     1
290
     0
176
     1
 90
       50
176
     1
 40
0.0
176
     1
 40
1.0
176
     1
 90
        0
176
     1
 62
    18
420
        0
176
     1
 90
       50
176
     1
 90
        3
176
     1
 62
     5
420
      255
176
     1
290
     0
176
     1
 90
       50
176
     1
 90
       50
176
     1
 90
       50
176
     1
290
     0
176
     1
 90
       50
176
     1
 62
   256
176
     0
 40
1.0
176
     0
 90
        2
176
     1
  1
strokes_ogs.tif
176
     1
290
     0
176
     1
 40
1.0
176
     1
 40
1.0
176
     1
  0
VISUALSTYLE
  5
39
102
{ACAD_REACTORS
330
29
102
}
330
29
100
AcDbVisualStyle
  2
ColorChange
 70
    16
177
     3
291
     1
 70
    58
 90
        2
176
     1
 90
        2
176
     1
 90
        3
176
     1
 90
        0
176
     1
 40
0.6
176
     1
 40
30.0
176
     1
 62
     8
420
  8421504
176
     1
 90
        1
176
     1
 90
        4
176
     1
 62
     7
176
     1
 62
   257
176
     1
 90
        1
176
     1
 90
        1
176
     1
 40
1.0
176
     1
 90
        8
176
     1
 62
     8
420
  8421504
176
     1
 40
1.0
176
     1
 90
        1
176
     1
 90
        6
176
     1
 90
        2
176
     1
 62
     7
176
     1
 90
        5
176
     1
 90
        0
176
     1
 90
        0
176
     1
290
     0
176
     1
 90
        1
176
     1
 40
0.0
176
     1
 90
        0
176
     1
290
     0
176
     1
290
     1
176
     1
290
     1
176
     1
290
     0
176
     1
290
     0
176
     1
290
     0
176
     1
290
     0
176
     1
290
     0
176
     1
290
     0
176
     1
 90
       50
176
     1
 40
0.0
176
     1
 40
1.0
176
     1
 90
        0
176
     1
 62
    18
420
        0
176
     1
 90
       50
176
     1
 90
        3
176
     1
 62
     5
420
      255
176
     1
290
     0
176
     1
 90
       50
176
     1
 90
       50
176
     1
 90
       50
176
     1
290
     0
176
     1
 90
       50
176
     1
 62
   256
176
     0
 40
1.0
176
     0
 90
        2
176
     1
  1
strokes_ogs.tif
176
     1
290
     0
176
     1
 40
1.0
176
     1
 40
1.0
176
     1
  0
VISUALSTYLE
  5
32
102
{ACAD_REACTORS
330
29
102
}
330
29
100
AcDbVisualStyle
  2
Conceptual
 70
     9
177
     3
291
     0
 70
    58
 90
        3
176
     1
 90
        2
176
     1
 90
        0
176
     1
 90
        0
176
     1
 40
0.6
176
     1
 40
30.0
176
     1
 62
     7
420
 16777215
176
     1
 90
        2
176
     1
 90
        2
176
     1
 62
     7
176
     1
 62
   257
176
     1
 90
        1
176
     1
 90
        1
176
     1
 40
179.0
176
     1
 90
        8
176
     1
 62
     7
176
     1
 40
1.0
176
     1
 90
        1
176
     1
 90
        6
176
     1
 90
        2
176
     1
 62
     7
176
     1
 90
        3
176
     1
 90
        0
176
     1
 90
        0
176
     1
290
     0
176
     1
 90
        1
176
     1
 40
0.0
176
     1
 90
        0
176
     1
290
     0
176
     1
290
     1
176
     1
290
     1
176
     1
290
     0
176
     1
290
     0
176
     1
290
     0
176
     1
290
     0
176
     1
290
     0
176
     1
290
     0
176
     1
 90
       50
176
     1
 40
0.0
176
     1
 40
1.0
176
     1
 90
        0
176
     1
 62
    18
420
        0
176
     1
 90
       50
176
     1
 90
        3
176
     1
 62
     5
420
      255
176
     1
290
     0
176
     1
 90
       50
176
     1
 90
       50
176
     1
 90
       50
176
     1
290
     0
176
     1
 90
       50
176
     1
 62
   256
176
     0
 40
1.0
176
     0
 90
        2
176
     1
  1
strokes_ogs.tif
176
     1
290
     0
176
     1
 40
1.0
176
     1
 40
1.0
176
     1
  0
VISUALSTYLE
  5
34
102
{ACAD_REACTORS
330
29
102
}
330
29
100
AcDbVisualStyle
  2
Dim
 70
    11
177
     3
291
     1
 70
    58
 90
        2
176
     1
 90
        2
176
     1
 90
        0
176
     1
 90
        0
176
     1
 40
0.6
176
     1
 40
30.0
176
     1
 62
     7
420
 16777215
176
     1
 90
        1
176
     1
 90
        4
176
     1
 62
     7
176
     1
 62
   257
176
     1
 90
        1
176
     1
 90
        1
176
     1
 40
1.0
176
     1
 90
        8
176
     1
 62
     7
176
     1
 40
1.0
176
     1
 90
        1
176
     1
 90
        6
176
     1
 90
        2
176
     1
 62
     7
176
     1
 90
        5
176
     1
 90
        0
176
     1
 90
        0
176
     1
290
     0
176
     1
 90
        1
176
     1
 40
-50.0
176
     1
 90
        0
176
     1
290
     0
176
     1
290
     1
176
     1
290
     1
176
     1
290
     0
176
     1
290
     0
176
     1
290
     0
176
     1
290
     0
176
     1
290
     0
176
     1
290
     0
176
     1
 90
       50
176
     1
 40
0.0
176
     1
 40
1.0
176
     1
 90
        0
176
     1
 62
    18
420
        0
176
     1
 90
       50
176
     1
 90
        3
176
     1
 62
     5
420
      255
176
     1
290
     0
176
     1
 90
       50
176
     1
 90
       50
176
     1
 90
       50
176
     1
290
     0
176
     1
 90
       50
176
     1
 62
   256
176
     0
 40
1.0
176
     0
 90
        2
176
     1
  1
strokes_ogs.tif
176
     1
290
     0
176
     1
 40
1.0
176
     1
 40
1.0
176
     1
  0
VISUALSTYLE
  5
41
102
{ACAD_REACTORS
330
29
102
}
330
29
100
AcDbVisualStyle
  2
EdgeColorOff
 70
    22
177
     3
291
     1
 70
    58
 90
        2
176
     0
 90
        2
176
     0
 90
        0
176
     0
 90
        0
176
     0
 40
0.6
176
     0
 40
30.0
176
     0
 62
     7
420
 16777215
176
     0
 90
        1
176
     0
 90
        4
176
     0
 62
     7
176
     0
 62
   257
176
     0
 90
        1
176
     0
 90
        1
176
     0
 40
1.0
176
     0
 90
        8
176
     2
 62
     7
176
     0
 40
1.0
176
     0
 90
        1
176
     0
 90
        6
176
     0
 90
        2
176
     0
 62
     7
176
     0
 90
        5
176
     0
 90
        0
176
     0
 90
        0
176
     0
290
     0
176
     0
 90
        1
176
     0
 40
0.0
176
     0
 90
        0
176
     0
290
     0
176
     1
290
     1
176
     1
290
     1
176
     1
290
     0
176
     1
290
     0
176
     1
290
     0
176
     1
290
     0
176
     1
290
     0
176
     1
290
     0
176
     1
 90
       50
176
     0
 40
0.0
176
     0
 40
1.0
176
     0
 90
        0
176
     0
 62
    18
420
        0
176
     0
 90
       50
176
     0
 90
        3
176
     0
 62
     5
420
      255
176
     0
290
     0
176
     1
 90
       50
176
     0
 90
       50
176
     0
 90
       50
176
     0
290
     0
176
     1
 90
       50
176
     0
 62
   256
176
     0
 40
1.0
176
     0
 90
        2
176
     0
  1
strokes_ogs.tif
176
     0
290
     0
176
     1
 40
1.0
176
     0
 40
1.0
176
     0
  0
VISUALSTYLE
  5
38
102
{ACAD_REACTORS
330
29
102
}
330
29
100
AcDbVisualStyle
  2
Facepattern
 70
    15
177
     3
291
     1
 70
    58
 90
        2
176
     1
 90
        2
176
     1
 90
        0
176
     1
 90
        0
176
     1
 40
0.6
176
     1
 40
30.0
176
     1
 62
     7
420
 16777215
176
     1
 90
        1
176
     1
 90
        4
176
     1
 62
     7
176
     1
 62
   257
176
     1
 90
        1
176
     1
 90
        1
176
     1
 40
1.0
176
     1
 90
        8
176
     1
 62
     7
176
     1
 40
1.0
176
     1
 90
        1
176
     1
 90
        6
176
     1
 90
        2
176
     1
 62
     7
176
     1
 90
        5
176
     1
 90
        0
176
     1
 90
        0
176
     1
290
     0
176
     1
 90
        1
176
     1
 40
0.0
176
     1
 90
        0
176
     1
290
     0
176
     1
290
     1
176
     1
290
     1
176
     1
290
     0
176
     1
290
     0
176
     1
290
     0
176
     1
290
     0
176
     1
290
     0
176
     1
290
     0
176
     1
 90
       50
176
     1
 40
0.0
176
     1
 40
1.0
176
     1
 90
        0
176
     1
 62
    18
420
        0
176
     1
 90
       50
176
     1
 90
        3
176
     1
 62
     5
420
      255
176
     1
290
     0
176
     1
 90
       50
176
     1
 90
       50
176
     1
 90
       50
176
     1
290
     0
176
     1
 90
       50
176
     1
 62
   256
176
     0
 40
1.0
176
     0
 90
        2
176
     1
  1
strokes_ogs.tif
176
     1
290
     0
176
     1
 40
1.0
176
     1
 40
1.0
176
     1
  0
VISUALSTYLE
  5
2A
102
{ACAD_REACTORS
330
29
102
}
330
29
100
AcDbVisualStyle
  2
Flat
 70
     0
177
     3
291
     1
 70
    58
 90
        2
176
     1
 90
        1
176
     1
 90
        1
176
     1
 90
        2
176
     1
 40
0.6
176
     1
 40
30.0
176
     1
 62
     7
420
 16777215
176
     1
 90
        0
176
     1
 90
        0
176
     1
 62
     7
176
     1
 62
   257
176
     1
 90
        1
176
     1
 90
        1
176
     1
 40
1.0
176
     1
 90
        8
176
     1
 62
     7
176
     1
 40
1.0
176
     1
 90
        1
176
     1
 90
        6
176
     1
 90
        2
176
     1
 62
     7
176
     1
 90
        5
176
     1
 90
        0
176
     1
 90
        0
176
     1
290
     0
176
     1
 90
       13
176
     1
 40
0.0
176
     1
 90
        0
176
     1
290
     0
176
     1
290
     1
176
     1
290
     1
176
     1
290
     0
176
     1
290
     0
176
     1
290
     0
176
     1
290
     0
176
     1
290
     0
176
     1
290
     0
176
     1
 90
       50
176
     1
 40
0.0
176
     1
 40
1.0
176
     1
 90
        0
176
     1
 62
    18
420
        0
176
     1
 90
       50
176
     1
 90
        3
176
     1
 62
     5
420
      255
176
     1
290
     0
176
     1
 90
       50
176
     1
 90
       50
176
     1
 90
       50
176
     1
290
     0
176
     1
 90
       50
176
     1
 62
   256
176
     0
 40
1.0
176
     0
 90
        2
176
     1
  1
strokes_ogs.tif
176
     1
290
     0
176
     1
 40
1.0
176
     1
 40
1.0
176
     1
  0
VISUALSTYLE
  5
2B
102
{ACAD_REACTORS
330
29
102
}
330
29
100
AcDbVisualStyle
  2
FlatWithEdges
 70
     1
177
     3
291
     1
 70
    58
 90
        2
176
     1
 90
        1
176
     1
 90
        1
176
     1
 90
        2
176
     1
 40
0.6
176
     1
 40
30.0
176
     1
 62
     7
420
 16777215
176
     1
 90
        1
176
     1
 90
        0
176
     1
 62
     7
176
     1
 62
   257
176
     1
 90
        1
176
     1
 90
        1
176
     1
 40
1.0
176
     1
 90
        0
176
     1
 62
   257
176
     1
 40
1.0
176
     1
 90
        1
176
     1
 90
        6
176
     1
 90
        2
176
     1
 62
     7
176
     1
 90
        5
176
     1
 90
        0
176
     1
 90
        0
176
     1
290
     0
176
     1
 90
       13
176
     1
 40
0.0
176
     1
 90
        0
176
     1
290
     0
176
     1
290
     1
176
     1
290
     1
176
     1
290
     0
176
     1
290
     0
176
     1
290
     0
176
     1
290
     0
176
     1
290
     0
176
     1
290
     0
176
     1
 90
       50
176
     1
 40
0.0
176
     1
 40
1.0
176
     1
 90
        0
176
     1
 62
    18
420
        0
176
     1
 90
       50
176
     1
 90
        3
176
     1
 62
     5
420
      255
176
     1
290
     0
176
     1
 90
       50
176
     1
 90
       50
176
     1
 90
       50
176
     1
290
     0
176
     1
 90
       50
176
     1
 62
   256
176
     0
 40
1.0
176
     0
 90
        2
176
     1
  1
strokes_ogs.tif
176
     1
290
     0
176
     1
 40
1.0
176
     1
 40
1.0
176
     1
  0
VISUALSTYLE
  5
2C
102
{ACAD_REACTORS
330
29
102
}
330
29
100
AcDbVisualStyle
  2
Gouraud
 70
     2
177
     3
291
     1
 70
    58
 90
        2
176
     1
 90
        2
176
     1
 90
        1
176
     1
 90
        2
176
     1
 40
0.6
176
     1
 40
30.0
176
     1
 62
     7
420
 16777215
176
     1
 90
        0
176
     1
 90
        0
176
     1
 62
     7
176
     1
 62
   257
176
     1
 90
        1
176
     1
 90
        1
176
     1
 40
1.0
176
     1
 90
        0
176
     1
 62
     7
176
     1
 40
1.0
176
     1
 90
        1
176
     1
 90
        6
176
     1
 90
        2
176
     1
 62
     7
176
     1
 90
        5
176
     1
 90
        0
176
     1
 90
        0
176
     1
290
     0
176
     1
 90
       13
176
     1
 40
0.0
176
     1
 90
        0
176
     1
290
     0
176
     1
290
     1
176
     1
290
     1
176
     1
290
     0
176
     1
290
     0
176
     1
290
     0
176
     1
290
     0
176
     1
290
     0
176
     1
290
     0
176
     1
 90
       50
176
     1
 40
0.0
176
     1
 40
1.0
176
     1
 90
        0
176
     1
 62
    18
420
        0
176
     1
 90
       50
176
     1
 90
        3
176
     1
 62
     5
420
      255
176
     1
290
     0
176
     1
 90
       50
176
     1
 90
       50
176
     1
 90
       50
176
     1
290
     0
176
     1
 90
       50
176
     1
 62
   256
176
     0
 40
1.0
176
     0
 90
        2
176
     1
  1
strokes_ogs.tif
176
     1
290
     0
176
     1
 40
1.0
176
     1
 40
1.0
176
     1
  0
VISUALSTYLE
  5
2D
102
{ACAD_REACTORS
330
29
102
}
330
29
100
AcDbVisualStyle
  2
GouraudWithEdges
 70
     3
177
     3
291
     1
 70
    58
 90
        2
176
     1
 90
        2
176
     1
 90
        1
176
     1
 90
        2
176
     1
 40
0.6
176
     1
 40
30.0
176
     1
 62
     7
420
 16777215
176
     1
 90
        1
176
     1
 90
        0
176
     1
 62
     7
176
     1
 62
   257
176
     1
 90
        1
176
     1
 90
        1
176
     1
 40
1.0
176
     1
 90
        0
176
     1
 62
   257
176
     1
 40
1.0
176
     1
 90
        1
176
     1
 90
        6
176
     1
 90
        2
176
     1
 62
     7
176
     1
 90
        5
176
     1
 90
        0
176
     1
 90
        0
176
     1
290
     0
176
     1
 90
       13
176
     1
 40
0.0
176
     1
 90
        0
176
     1
290
     0
176
     1
290
     1
176
     1
290
     1
176
     1
290
     0
176
     1
290
     0
176
     1
290
     0
176
     1
290
     0
176
     1
290
     0
176
     1
290
     0
176
     1
 90
       50
176
     1
 40
0.0
176
     1
 40
1.0
176
     1
 90
        0
176
     1
 62
    18
420
        0
176
     1
 90
       50
176
     1
 90
        3
176
     1
 62
     5
420
      255
176
     1
290
     0
176
     1
 90
       50
176
     1
 90
       50
176
     1
 90
       50
176
     1
290
     0
176
     1
 90
       50
176
     1
 62
   256
176
     0
 40
1.0
176
     0
 90
        2
176
     1
  1
strokes_ogs.tif
176
     1
290
     0
176
     1
 40
1.0
176
     1
 40
1.0
176
     1
  0
VISUALSTYLE
  5
31
102
{ACAD_REACTORS
330
29
102
}
330
29
100
AcDbVisualStyle
  2
Hidden
 70
     6
177
     3
291
     0
 70
    58
 90
        1
176
     1
 90
        2
176
     1
 90
        2
176
     1
 90
        0
176
     1
 40
0.6
176
     1
 40
30.0
176
     1
 62
     7
420
 16777215
176
     1
 90
        2
176
     1
 90
        2
176
     1
 62
     7
176
     1
 62
   257
176
     1
 90
        2
176
     1
 90
        1
176
     1
 40
40.0
176
     1
 90
        0
176
     1
 62
   257
176
     1
 40
1.0
176
     1
 90
        1
176
     1
 90
        6
176
     1
 90
        2
176
     1
 62
     7
176
     1
 90
        3
176
     1
 90
        0
176
     1
 90
        0
176
     1
290
     0
176
     1
 90
        1
176
     1
 40
0.0
176
     1
 90
        0
176
     1
290
     0
176
     1
290
     1
176
     1
290
     1
176
     1
290
     0
176
     1
290
     0
176
     1
290
     0
176
     1
290
     0
176
     1
290
     0
176
     1
290
     0
176
     1
 90
       50
176
     1
 40
0.0
176
     1
 40
1.0
176
     1
 90
        0
176
     1
 62
    18
420
        0
176
     1
 90
       50
176
     1
 90
        3
176
     1
 62
     5
420
      255
176
     1
290
     0
176
     1
 90
       50
176
     1
 90
       50
176
     1
 90
       50
176
     1
290
     0
176
     1
 90
       50
176
     1
 62
   256
176
     0
 40
1.0
176
     0
 90
        2
176
     1
  1
strokes_ogs.tif
176
     1
290
     0
176
     1
 40
1.0
176
     1
 40
1.0
176
     1
  0
VISUALSTYLE
  5
3F
102
{ACAD_REACTORS
330
29
102
}
330
29
100
AcDbVisualStyle
  2
JitterOff
 70
    20
177
     3
291
     1
 70
    58
 90
        2
176
     0
 90
        2
176
     0
 90
        0
176
     0
 90
        0
176
     0
 40
0.6
176
     0
 40
30.0
176
     0
 62
     7
420
 16777215
176
     0
 90
        1
176
     0
 90
        4
176
     0
 62
     7
176
     0
 62
   257
176
     0
 90
        1
176
     0
 90
        1
176
     0
 40
1.0
176
     0
 90
       10
176
     2
 62
     7
176
     0
 40
1.0
176
     0
 90
        1
176
     0
 90
        6
176
     0
 90
        2
176
     0
 62
     7
176
     0
 90
        5
176
     0
 90
        0
176
     0
 90
        0
176
     0
290
     0
176
     0
 90
        1
176
     0
 40
0.0
176
     0
 90
        0
176
     0
290
     0
176
     1
290
     1
176
     1
290
     1
176
     1
290
     0
176
     1
290
     0
176
     1
290
     0
176
     1
290
     0
176
     1
290
     0
176
     1
290
     0
176
     1
 90
       50
176
     0
 40
0.0
176
     0
 40
1.0
176
     0
 90
        0
176
     0
 62
    18
420
        0
176
     0
 90
       50
176
     0
 90
        3
176
     0
 62
     5
420
      255
176
     0
290
     0
176
     1
 90
       50
176
     0
 90
       50
176
     0
 90
       50
176
     0
290
     0
176
     1
 90
       50
176
     0
 62
   256
176
     0
 40
1.0
176
     0
 90
        2
176
     0
  1
strokes_ogs.tif
176
     0
290
     0
176
     1
 40
1.0
176
     0
 40
1.0
176
     0
  0
VISUALSTYLE
  5
37
102
{ACAD_REACTORS
330
29
102
}
330
29
100
AcDbVisualStyle
  2
Linepattern
 70
    14
177
     3
291
     1
 70
    58
 90
        2
176
     1
 90
        2
176
     1
 90
        0
176
     1
 90
        0
176
     1
 40
0.6
176
     1
 40
30.0
176
     1
 62
     7
420
 16777215
176
     1
 90
        1
176
     1
 90
        4
176
     1
 62
     7
176
     1
 62
   257
176
     1
 90
        7
176
     1
 90
        7
176
     1
 40
1.0
176
     1
 90
        8
176
     1
 62
     7
176
     1
 40
1.0
176
     1
 90
        1
176
     1
 90
        6
176
     1
 90
        2
176
     1
 62
     7
176
     1
 90
        5
176
     1
 90
        0
176
     1
 90
        0
176
     1
290
     0
176
     1
 90
        1
176
     1
 40
0.0
176
     1
 90
        0
176
     1
290
     0
176
     1
290
     1
176
     1
290
     1
176
     1
290
     0
176
     1
290
     0
176
     1
290
     0
176
     1
290
     0
176
     1
290
     0
176
     1
290
     0
176
     1
 90
       50
176
     1
 40
0.0
176
     1
 40
1.0
176
     1
 90
        0
176
     1
 62
    18
420
        0
176
     1
 90
       50
176
     1
 90
        3
176
     1
 62
     5
420
      255
176
     1
290
     0
176
     1
 90
       50
176
     1
 90
       50
176
     1
 90
       50
176
     1
290
     0
176
     1
 90
       50
176
     1
 62
   256
176
     0
 40
1.0
176
     0
 90
        2
176
     1
  1
strokes_ogs.tif
176
     1
290
     0
176
     1
 40
1.0
176
     1
 40
1.0
176
     1
  0
VISUALSTYLE
  5
40
102
{ACAD_REACTORS
330
29
102
}
330
29
100
AcDbVisualStyle
  2
OverhangOff
 70
    21
177
     3
291
     1
 70
    58
 90
        2
176
     0
 90
        2
176
     0
 90
        0
176
     0
 90
        0
176
     0
 40
0.6
176
     0
 40
30.0
176
     0
 62
     7
420
 16777215
176
     0
 90
        1
176
     0
 90
        4
176
     0
 62
     7
176
     0
 62
   257
176
     0
 90
        1
176
     0
 90
        1
176
     0
 40
1.0
176
     0
 90
        9
176
     2
 62
     7
176
     0
 40
1.0
176
     0
 90
        1
176
     0
 90
        6
176
     0
 90
        2
176
     0
 62
     7
176
     0
 90
        5
176
     0
 90
        0
176
     0
 90
        0
176
     0
290
     0
176
     0
 90
        1
176
     0
 40
0.0
176
     0
 90
        0
176
     0
290
     0
176
     1
290
     1
176
     1
290
     1
176
     1
290
     0
176
     1
290
     0
176
     1
290
     0
176
     1
290
     0
176
     1
290
     0
176
     1
290
     0
176
     1
 90
       50
176
     0
 40
0.0
176
     0
 40
1.0
176
     0
 90
        0
176
     0
 62
    18
420
        0
176
     0
 90
       50
176
     0
 90
        3
176
     0
 62
     5
420
      255
176
     0
290
     0
176
     1
 90
       50
176
     0
 90
       50
176
     0
 90
       50
176
     0
290
     0
176
     1
 90
       50
176
     0
 62
   256
176
     0
 40
1.0
176
     0
 90
        2
176
     0
  1
strokes_ogs.tif
176
     0
290
     0
176
     1
 40
1.0
176
     0
 40
1.0
176
     0
  0
VISUALSTYLE
  5
33
102
{ACAD_REACTORS
330
29
102
}
330
29
100
AcDbVisualStyle
  2
Realistic
 70
     8
177
     3
291
     0
 70
    58
 90
        2
176
     1
 90
        3
176
     1
 90
        0
176
     1
 90
        2
176
     1
 40
0.6
176
     1
 40
30.0
176
     1
 62
     7
420
 16777215
176
     1
 90
        0
176
     1
 90
        0
176
     1
 62
     7
176
     1
 62
   257
176
     1
 90
        1
176
     1
 90
        1
176
     1
 40
1.0
176
     1
 90
        8
176
     1
 62
   257
176
     1
 40
1.0
176
     1
 90
        1
176
     1
 90
        6
176
     1
 90
        2
176
     1
 62
     7
176
     1
 90
        3
176
     1
 90
        0
176
     1
 90
        0
176
     1
290
     0
176
     1
 90
       13
176
     1
 40
0.0
176
     1
 90
        0
176
     1
290
     0
176
     1
290
     1
176
     1
290
     1
176
     1
290
     0
176
     1
290
     0
176
     1
290
     0
176
     1
290
     0
176
     1
290
     0
176
     1
290
     0
176
     1
 90
       50
176
     1
 40
0.0
176
     1
 40
1.0
176
     1
 90
        0
176
     1
 62
    18
420
        0
176
     1
 90
       50
176
     1
 90
        3
176
     1
 62
     5
420
      255
176
     1
290
     0
176
     1
 90
       50
176
     1
 90
       50
176
     1
 90
       50
176
     1
290
     0
176
     1
 90
       50
176
     1
 62
   256
176
     0
 40
1.0
176
     0
 90
        2
176
     1
  1
strokes_ogs.tif
176
     1
290
     0
176
     1
 40
1.0
176
     1
 40
1.0
176
     1
  0
VISUALSTYLE
  5
3E
102
{ACAD_REACTORS
330
29
102
}
330
29
100
AcDbVisualStyle
  2
Shaded
 70
    27
177
     3
291
     0
 70
    58
 90
        2
176
     1
 90
        2
176
     1
 90
        1
176
     1
 90
        2
176
     1
 40
0.6
176
     1
 40
30.0
176
     1
 62
     7
420
 16777215
176
     1
 90
        0
176
     1
 90
        4
176
     1
 62
     7
176
     1
 62
   257
176
     1
 90
        1
176
     1
 90
        1
176
     1
 40
1.0
176
     1
 90
        8
176
     1
 62
   257
176
     1
 40
1.0
176
     1
 90
        1
176
     1
 90
        6
176
     1
 90
        2
176
     1
 62
     8
420
  7895160
176
     1
 90
        3
176
     1
 90
        0
176
     1
 90
        0
176
     1
290
     0
176
     1
 90
        5
176
     1
 40
0.0
176
     1
 90
        0
176
     1
290
     0
176
     1
290
     1
176
     1
290
     1
176
     1
290
     0
176
     1
290
     0
176
     1
290
     0
176
     1
290
     0
176
     1
290
     0
176
     1
290
     0
176
     1
 90
       50
176
     1
 40
0.0
176
     1
 40
1.0
176
     1
 90
        0
176
     1
 62
    18
420
        0
176
     1
 90
       50
176
     1
 90
        3
176
     1
 62
     5
420
      255
176
     1
290
     0
176
     1
 90
       50
176
     1
 90
       50
176
     1
 90
       50
176
     1
290
     0
176
     1
 90
       50
176
     1
 62
   256
176
     0
 40
1.0
176
     0
 90
        2
176
     1
  1
strokes_ogs.tif
176
     1
290
     0
176
     1
 40
1.0
176
     1
 40
1.0
176
     1
  0
VISUALSTYLE
  5
3D
102
{ACAD_REACTORS
330
29
102
}
330
29
100
AcDbVisualStyle
  2
Shaded with edges
 70
    26
177
     3
291
     0
 70
    58
 90
        2
176
     1
 90
        2
176
     1
 90
        1
176
     1
 90
        2
176
     1
 40
0.6
176
     1
 40
30.0
176
     1
 62
     7
420
 16777215
176
     1
 90
        1
176
     1
 90
        2
176
     1
 62
     7
176
     1
 62
   257
176
     1
 90
        2
176
     1
 90
        1
176
     1
 40
1.0
176
     1
 90
        8
176
     1
 62
   257
176
     1
 40
1.0
176
     1
 90
        1
176
     1
 90
        6
176
     1
 90
        2
176
     1
 62
     7
176
     1
 90
        3
176
     1
 90
        0
176
     1
 90
        0
176
     1
290
     0
176
     1
 90
        5
176
     1
 40
0.0
176
     1
 90
        0
176
     1
290
     0
176
     1
290
     1
176
     1
290
     1
176
     1
290
     0
176
     1
290
     0
176
     1
290
     0
176
     1
290
     0
176
     1
290
     0
176
     1
290
     0
176
     1
 90
       50
176
     1
 40
0.0
176
     1
 40
1.0
176
     1
 90
        0
176
     1
 62
    18
420
        0
176
     1
 90
       50
176
     1
 90
        3
176
     1
 62
     5
420
      255
176
     1
290
     0
176
     1
 90
       50
176
     1
 90
       50
176
     1
 90
       50
176
     1
290
     0
176
     1
 90
       50
176
     1
 62
   256
176
     0
 40
1.0
176
     0
 90
        2
176
     1
  1
strokes_ogs.tif
176
     1
290
     0
176
     1
 40
1.0
176
     1
 40
1.0
176
     1
  0
VISUALSTYLE
  5
3A
102
{ACAD_REACTORS
330
29
102
}
330
29
100
AcDbVisualStyle
  2
Shades of Gray
 70
    23
177
     3
291
     0
 70
    58
 90
        2
176
     1
 90
        2
176
     1
 90
        3
176
     1
 90
        0
176
     1
 40
0.6
176
     1
 40
30.0
176
     1
 62
     7
420
 16777215
176
     1
 90
        2
176
     1
 90
        2
176
     1
 62
     7
176
     1
 62
     7
176
     1
 90
        1
176
     1
 90
        1
176
     1
 40
40.0
176
     1
 90
        8
176
     1
 62
     7
176
     1
 40
1.0
176
     1
 90
        1
176
     1
 90
        6
176
     1
 90
        2
176
     1
 62
     7
176
     1
 90
        3
176
     1
 90
        0
176
     1
 90
        0
176
     1
290
     0
176
     1
 90
        1
176
     1
 40
0.0
176
     1
 90
        0
176
     1
290
     0
176
     1
290
     1
176
     1
290
     1
176
     1
290
     0
176
     1
290
     0
176
     1
290
     0
176
     1
290
     0
176
     1
290
     0
176
     1
290
     0
176
     1
 90
       50
176
     1
 40
0.0
176
     1
 40
1.0
176
     1
 90
        0
176
     1
 62
    18
420
        0
176
     1
 90
       50
176
     1
 90
        3
176
     1
 62
     5
420
      255
176
     1
290
     0
176
     1
 90
       50
176
     1
 90
       50
176
     1
 90
       50
176
     1
290
     0
176
     1
 90
       50
176
     1
 62
   256
176
     0
 40
1.0
176
     0
 90
        2
176
     1
  1
strokes_ogs.tif
176
     1
290
     0
176
     1
 40
1.0
176
     1
 40
1.0
176
     1
  0
VISUALSTYLE
  5
3B
102
{ACAD_REACTORS
330
29
102
}
330
29
100
AcDbVisualStyle
  2
Sketchy
 70
    24
177
     3
291
     0
 70
    58
 90
        1
176
     1
 90
        2
176
     1
 90
        2
176
     1
 90
        0
176
     1
 40
0.6
176
     1
 40
30.0
176
     1
 62
     7
420
 16777215
176
     1
 90
        2
176
     1
 90
        2
176
     1
 62
     7
176
     1
 62
     7
176
     1
 90
        1
176
     1
 90
        1
176
     1
 40
40.0
176
     1
 90
       11
176
     1
 62
     7
176
     1
 40
1.0
176
     1
 90
        1
176
     1
 90
        6
176
     1
 90
        2
176
     1
 62
     7
176
     1
 90
        6
176
     1
 90
        0
176
     1
 90
        0
176
     1
290
     0
176
     1
 90
        1
176
     1
 40
0.0
176
     1
 90
        0
176
     1
290
     0
176
     1
290
     1
176
     1
290
     1
176
     1
290
     0
176
     1
290
     0
176
     1
290
     0
176
     1
290
     0
176
     1
290
     0
176
     1
290
     0
176
     1
 90
       50
176
     1
 40
0.0
176
     1
 40
1.0
176
     1
 90
        0
176
     1
 62
    18
420
        0
176
     1
 90
       50
176
     1
 90
        3
176
     1
 62
     5
420
      255
176
     1
290
     0
176
     1
 90
       50
176
     1
 90
       50
176
     1
 90
       50
176
     1
290
     0
176
     1
 90
       50
176
     1
 62
   256
176
     0
 40
1.0
176
     0
 90
        2
176
     1
  1
strokes_ogs.tif
176
     1
290
     0
176
     1
 40
1.0
176
     1
 40
1.0
176
     1
  0
VISUALSTYLE
  5
36
102
{ACAD_REACTORS
330
29
102
}
330
29
100
AcDbVisualStyle
  2
Thicken
 70
    13
177
     3
291
     1
 70
    58
 90
        2
176
     1
 90
        2
176
     1
 90
        0
176
     1
 90
        0
176
     1
 40
0.6
176
     1
 40
30.0
176
     1
 62
     7
420
 16777215
176
     1
 90
        1
176
     1
 90
        4
176
     1
 62
     7
176
     1
 62
   257
176
     1
 90
        1
176
     1
 90
        1
176
     1
 40
1.0
176
     1
 90
       12
176
     1
 62
     7
176
     1
 40
1.0
176
     1
 90
        1
176
     1
 90
        6
176
     1
 90
        2
176
     1
 62
     7
176
     1
 90
        5
176
     1
 90
        0
176
     1
 90
        0
176
     1
290
     0
176
     1
 90
        1
176
     1
 40
0.0
176
     1
 90
        0
176
     1
290
     0
176
     1
290
     1
176
     1
290
     1
176
     1
290
     0
176
     1
290
     0
176
     1
290
     0
176
     1
290
     0
176
     1
290
     0
176
     1
290
     0
176
     1
 90
       50
176
     1
 40
0.0
176
     1
 40
1.0
176
     1
 90
        0
176
     1
 62
    18
420
        0
176
     1
 90
       50
176
     1
 90
        3
176
     1
 62
     5
420
      255
176
     1
290
     0
176
     1
 90
       50
176
     1
 90
       50
176
     1
 90
       50
176
     1
290
     0
176
     1
 90
       50
176
     1
 62
   256
176
     0
 40
1.0
176
     0
 90
        2
176
     1
  1
strokes_ogs.tif
176
     1
290
     0
176
     1
 40
1.0
176
     1
 40
1.0
176
     1
  0
VISUALSTYLE
  5
30
102
{ACAD_REACTORS
330
29
102
}
330
29
100
AcDbVisualStyle
  2
Wireframe
 70
     5
177
     3
291
     0
 70
    58
 90
        0
176
     1
 90
        2
176
     1
 90
        0
176
     1
 90
        0
176
     1
 40
0.6
176
     1
 40
30.0
176
     1
 62
     7
420
 16777215
176
     1
 90
        1
176
     1
 90
        4
176
     1
 62
     7
176
     1
 62
   257
176
     1
 90
        1
176
     1
 90
        1
176
     1
 40
1.0
176
     1
 90
        0
176
     1
 62
   257
176
     1
 40
1.0
176
     1
 90
        1
176
     1
 90
        6
176
     1
 90
        2
176
     1
 62
     7
176
     1
 90
        3
176
     1
 90
        0
176
     1
 90
        0
176
     1
290
     0
176
     1
 90
        1
176
     1
 40
0.0
176
     1
 90
        0
176
     1
290
     0
176
     1
290
     1
176
     1
290
     1
176
     1
290
     0
176
     1
290
     0
176
     1
290
     0
176
     1
290
     0
176
     1
290
     0
176
     1
290
     0
176
     1
 90
       50
176
     1
 40
0.0
176
     1
 40
1.0
176
     1
 90
        0
176
     1
 62
    18
420
        0
176
     1
 90
       50
176
     1
 90
        3
176
     1
 62
     5
420
      255
176
     1
290
     0
176
     1
 90
       50
176
     1
 90
       50
176
     1
 90
       50
176
     1
290
     0
176
     1
 90
       50
176
     1
 62
   256
176
     0
 40
1.0
176
     0
 90
        2
176
     1
  1
strokes_ogs.tif
176
     1
290
     0
176
     1
 40
1.0
176
     1
 40
1.0
176
     1
  0
VISUALSTYLE
  5
3C
102
{ACAD_REACTORS
330
29
102
}
330
29
100
AcDbVisualStyle
  2
X-Ray
 70
    25
177
     3
291
     0
 70
    58
 90
        2
176
     1
 90
        2
176
     1
 90
        1
176
     1
 90
        1
176
     1
 40
0.5
176
     1
 40
30.0
176
     1
 62
     7
420
 16777215
176
     1
 90
        1
176
     1
 90
        0
176
     1
 62
     7
176
     1
 62
   257
176
     1
 90
        1
176
     1
 90
        1
176
     1
 40
1.0
176
     1
 90
        8
176
     1
 62
     7
176
     1
 40
1.0
176
     1
 90
        1
176
     1
 90
        6
176
     1
 90
        2
176
     1
 62
     7
176
     1
 90
        3
176
     1
 90
        0
176
     1
 90
        0
176
     1
290
     0
176
     1
 90
       13
176
     1
 40
0.0
176
     1
 90
        0
176
     1
290
     0
176
     1
290
     1
176
     1
290
     1
176
     1
290
     0
176
     1
290
     0
176
     1
290
     0
176
     1
290
     0
176
     1
290
     0
176
     1
290
     0
176
     1
 90
       50
176
     1
 40
0.0
176
     1
 40
1.0
176
     1
 90
        0
176
     1
 62
    18
420
        0
176
     1
 90
       50
176
     1
 90
        3
176
     1
 62
     5
420
      255
176
     1
290
     0
176
     1
 90
       50
176
     1
 90
       50
176
     1
 90
       50
176
     1
290
     0
176
     1
 90
       50
176
     1
 62
   256
176
     0
 40
1.0
176
     0
 90
        2
176
     1
  1
strokes_ogs.tif
176
     1
290
     0
176
     1
 40
1.0
176
     1
 40
1.0
176
     1
  0
DICTIONARYVAR
  5
1F1
102
{ACAD_REACTORS
330
1EB
102
}
330
1EB
100
DictionaryVariables
280
     0
  1
1:1
  0
DICTIONARYVAR
  5
1ED
102
{ACAD_REACTORS
330
1EB
102
}
330
1EB
100
DictionaryVariables
280
     0
  1
STANDARD
  0
DICTIONARYVAR
  5
1EC
102
{ACAD_REACTORS
330
1EB
102
}
330
1EB
100
DictionaryVariables
280
     0
  1
STANDARD
  0
DICTIONARYVAR
  5
1EE
102
{ACAD_REACTORS
330
1EB
102
}
330
1EB
100
DictionaryVariables
280
     0
  1
Imperial24
  0
DICTIONARYVAR
  5
1EF
102
{ACAD_REACTORS
330
1EB
102
}
330
1EB
100
DictionaryVariables
280
     0
  1
Imperial24
  0
DICTIONARYVAR
  5
1F3
102
{ACAD_REACTORS
330
1EB
102
}
330
1EB
100
DictionaryVariables
280
     0
  1
1
  0
DICTIONARYVAR
  5
1F4
102
{ACAD_REACTORS
330
1EB
102
}
330
1EB
100
DictionaryVariables
280
     0
  1
15
  0
DICTIONARYVAR
  5
1F2
102
{ACAD_REACTORS
330
1EB
102
}
330
1EB
100
DictionaryVariables
280
     0
  1
0
  0
DICTIONARYVAR
  5
1F0
102
{ACAD_REACTORS
330
1EB
102
}
330
1EB
100
DictionaryVariables
280
     0
  1
0
  0
DICTIONARY
  5
1A
330
19
100
AcDbDictionary
280
     1
281
     1
  3
BUMPTILE
360
1C
  3
DIFFUSETILE
360
1B
  3
OPACITYTILE
360
1F
  3
REFLECTIONTILE
360
1E
  3
REFRACTIONTILE
360
20
  3
SPECULARTILE
360
1D
  0
DICTIONARY
  5
12
330
11
100
AcDbDictionary
280
     1
281
     1
  3
BUMPTILE
360
14
  3
DIFFUSETILE
360
13
  3
OPACITYTILE
360
17
  3
REFLECTIONTILE
360
16
  3
REFRACTIONTILE
360
18
  3
SPECULARTILE
360
15
  0
DICTIONARY
  5
22
330
21
100
AcDbDictionary
280
     1
281
     1
  3
BUMPTILE
360
24
  3
DIFFUSETILE
360
23
  3
OPACITYTILE
360
27
  3
REFLECTIONTILE
360
26
  3
REFRACTIONTILE
360
28
  3
SPECULARTILE
360
25
  0
DICTIONARY
  5
1F5
330
64
100
AcDbDictionary
280
     1
281
     1
  3
ACAD_ROUNDTRIP_2008_TABLESTYLE_CELLSTYLEMAP
360
1F6
  0
XRECORD
  5
1C
102
{ACAD_REACTORS
330
1A
102
}
330
1A
100
AcDbXrecord
280
     1
270
     1
271
     1
  0
XRECORD
  5
1B
102
{ACAD_REACTORS
330
1A
102
}
330
1A
100
AcDbXrecord
280
     1
270
     1
271
     1
  0
XRECORD
  5
1F
102
{ACAD_REACTORS
330
1A
102
}
330
1A
100
AcDbXrecord
280
     1
270
     1
271
     1
  0
XRECORD
  5
1E
102
{ACAD_REACTORS
330
1A
102
}
330
1A
100
AcDbXrecord
280
     1
270
     1
271
     1
  0
XRECORD
  5
20
102
{ACAD_REACTORS
330
1A
102
}
330
1A
100
AcDbXrecord
280
     1
270
     1
271
     1
  0
XRECORD
  5
1D
102
{ACAD_REACTORS
330
1A
102
}
330
1A
100
AcDbXrecord
280
     1
270
     1
271
     1
  0
XRECORD
  5
14
102
{ACAD_REACTORS
330
12
102
}
330
12
100
AcDbXrecord
280
     1
270
     1
271
     1
  0
XRECORD
  5
13
102
{ACAD_REACTORS
330
12
102
}
330
12
100
AcDbXrecord
280
     1
270
     1
271
     1
  0
XRECORD
  5
17
102
{ACAD_REACTORS
330
12
102
}
330
12
100
AcDbXrecord
280
     1
270
     1
271
     1
  0
XRECORD
  5
16
102
{ACAD_REACTORS
330
12
102
}
330
12
100
AcDbXrecord
280
     1
270
     1
271
     1
  0
XRECORD
  5
18
102
{ACAD_REACTORS
330
12
102
}
330
12
100
AcDbXrecord
280
     1
270
     1
271
     1
  0
XRECORD
  5
15
102
{ACAD_REACTORS
330
12
102
}
330
12
100
AcDbXrecord
280
     1
270
     1
271
     1
  0
XRECORD
  5
24
102
{ACAD_REACTORS
330
22
102
}
330
22
100
AcDbXrecord
280
     1
270
     1
271
     1
  0
XRECORD
  5
23
102
{ACAD_REACTORS
330
22
102
}
330
22
100
AcDbXrecord
280
     1
270
     1
271
     1
  0
XRECORD
  5
27
102
{ACAD_REACTORS
330
22
102
}
330
22
100
AcDbXrecord
280
     1
270
     1
271
     1
  0
XRECORD
  5
26
102
{ACAD_REACTORS
330
22
102
}
330
22
100
AcDbXrecord
280
     1
270
     1
271
     1
  0
XRECORD
  5
28
102
{ACAD_REACTORS
330
22
102
}
330
22
100
AcDbXrecord
280
     1
270
     1
271
     1
  0
XRECORD
  5
25
102
{ACAD_REACTORS
330
22
102
}
330
22
100
AcDbXrecord
280
     1
270
     1
271
     1
  0
CELLSTYLEMAP
  5
1F6
102
{ACAD_REACTORS
330
1F5
102
}
330
1F5
100
AcDbCellStyleMap
 90
        3
300
CELLSTYLE
  1
TABLEFORMAT_BEGIN
 90
        5
170
     1
 91
        0
 92
    32768
 62
   257
 93
        1
300
CONTENTFORMAT
  1
CONTENTFORMAT_BEGIN
 90
        0
 91
        0
 92
      512
 93
        0
300

 40
0.0
140
1.0
 94
        5
 62
     0
340
55
144
0.25
309
CONTENTFORMAT_END
171
     0
 94
        0
309
TABLEFORMAT_END
  1
CELLSTYLE_BEGIN
 90
        1
 91
        1
300
_TITLE
309
CELLSTYLE_END
300
CELLSTYLE
  1
TABLEFORMAT_BEGIN
 90
        5
170
     1
 91
        0
 92
        0
 62
   257
 93
        1
300
CONTENTFORMAT
  1
CONTENTFORMAT_BEGIN
 90
        0
 91
        0
 92
      512
 93
        0
300

 40
0.0
140
1.0
 94
        5
 62
     0
340
55
144
0.18
309
CONTENTFORMAT_END
171
     0
 94
        0
309
TABLEFORMAT_END
  1
CELLSTYLE_BEGIN
 90
        2
 91
        1
300
_HEADER
309
CELLSTYLE_END
300
CELLSTYLE
  1
TABLEFORMAT_BEGIN
 90
        5
170
     1
 91
        0
 92
        0
 62
   257
 93
        1
300
CONTENTFORMAT
  1
CONTENTFORMAT_BEGIN
 90
        0
 91
        0
 92
      512
 93
        0
300

 40
0.0
140
1.0
 94
        2
 62
     0
340
55
144
0.18
309
CONTENTFORMAT_END
171
     0
 94
        0
309
TABLEFORMAT_END
  1
CELLSTYLE_BEGIN
 90
        3
 91
        2
300
_DATA
309
CELLSTYLE_END
  0
ENDSEC
  0
EOF
