  0
SECTION
  2
HEADER
  9
$ACADVER
  1
AC1032
  9
$ACADMAINTVER
 90
        5
  9
$DWGCODEPAGE
  3
ANSI_932
  9
$REQUIREDVERSIONS
160
                 0
  9
$INSBASE
 10
0.0
 20
0.0
 30
0.0
  9
$EXTMIN
 10
0.0
 20
0.0
 30
0.0
  9
$EXTMAX
 10
420.0
 20
297.0
 30
0.0
  9
$LIMMIN
 10
0.0
 20
0.0
  9
$LIMMAX
 10
420.0
 20
297.0
  9
$ORTHOMODE
 70
     0
  9
$REGENMODE
 70
     1
  9
$FILLMODE
 70
     1
  9
$QTEXTMODE
 70
     0
  9
$MIRRTEXT
 70
     0
  9
$LTSCALE
 40
1.0
  9
$ATTMODE
 70
     1
  9
$TEXTSIZE
 40
0.2
  9
$TRACEWID
 40
0.05
  9
$TEXTSTYLE
  7
STANDARD
  9
$CLAYER
  8
0
  9
$CELTYPE
  6
CONTINUOUS
  9
$CECOLOR
 62
   256
  9
$CELTSCALE
 40
1.0
  9
$DISPSILH
 70
     0
  9
$DIMSCALE
 40
1.0
  9
$DIMASZ
 40
0.18
  9
$DIMEXO
 40
0.0625
  9
$DIMDLI
 40
0.38
  9
$DIMRND
 40
0.0
  9
$DIMDLE
 40
0.0
  9
$DIMEXE
 40
0.18
  9
$DIMTP
 40
0.0
  9
$DIMTM
 40
0.0
  9
$DIMTXT
 40
0.18
  9
$DIMCEN
 40
0.09
  9
$DIMTSZ
 40
0.0
  9
$DIMTOL
 70
     0
  9
$DIMLIM
 70
     0
  9
$DIMTIH
 70
     1
  9
$DIMTOH
 70
     1
  9
$DIMSE1
 70
     0
  9
$DIMSE2
 70
     0
  9
$DIMTAD
 70
     0
  9
$DIMZIN
 70
     0
  9
$DIMBLK
  1

  9
$DIMASO
 70
     1
  9
$DIMSHO
 70
     1
  9
$DIMPOST
  1

  9
$DIMAPOST
  1

  9
$DIMALT
 70
     0
  9
$DIMALTD
 70
     2
  9
$DIMALTF
 40
25.4
  9
$DIMLFAC
 40
1.0
  9
$DIMTOFL
 70
     0
  9
$DIMTVP
 40
0.0
  9
$DIMTIX
 70
     0
  9
$DIMSOXD
 70
     0
  9
$DIMSAH
 70
     0
  9
$DIMBLK1
  1

  9
$DIMBLK2
  1

  9
$DIMSTYLE
  2
Standard
  9
$DIMCLRD
 70
     0
  9
$DIMCLRE
 70
     0
  9
$DIMCLRT
 70
     0
  9
$DIMTFAC
 40
1.0
  9
$DIMGAP
 40
0.09
  9
$DIMJUST
 70
     0
  9
$DIMSD1
 70
     0
  9
$DIMSD2
 70
     0
  9
$DIMTOLJ
 70
     1
  9
$DIMTZIN
 70
     0
  9
$DIMALTZ
 70
     0
  9
$DIMALTTZ
 70
     0
  9
$DIMUPT
 70
     0
  9
$DIMDEC
 70
     4
  9
$DIMTDEC
 70
     4
  9
$DIMALTU
 70
     2
  9
$DIMALTTD
 70
     2
  9
$DIMTXSTY
  7
STANDARD
  9
$DIMAUNIT
 70
     0
  9
$DIMADEC
 70
     0
  9
$DIMALTRND
 40
0.0
  9
$DIMAZIN
 70
     0
  9
$DIMDSEP
 70
    46
  9
$DIMATFIT
 70
     3
  9
$DIMFRAC
 70
     0
  9
$DIMLDRBLK
  1

  9
$DIMLUNIT
 70
     2
  9
$DIMLWD
 70
    -2
  9
$DIMLWE
 70
    -2
  9
$DIMTMOVE
 70
     0
  9
$DIMFXL
 40
1.0
  9
$DIMFXLON
 70
     0
  9
$DIMJOGANG
 40
0.7853981633974483
  9
$DIMTFILL
 70
     0
  9
$DIMTFILLCLR
 70
     0
  9
$DIMARCSYM
 70
     0
  9
$DIMLTYPE
  6

  9
$DIMLTEX1
  6

  9
$DIMLTEX2
  6

  9
$DIMTXTDIRECTION
 70
     0
  9
$LUNITS
 70
     2
  9
$LUPREC
 70
     4
  9
$SKETCHINC
 40
0.1
  9
$FILLETRAD
 40
0.0
  9
$AUNITS
 70
     0
  9
$AUPREC
 70
     0
  9
$MENU
  1
.
  9
$ELEVATION
 40
0.0
  9
$PELEVATION
 40
0.0
  9
$THICKNESS
 40
0.0
  9
$LIMCHECK
 70
     0
  9
$CHAMFERA
 40
0.0
  9
$CHAMFERB
 40
0.0
  9
$CHAMFERC
 40
0.0
  9
$CHAMFERD
 40
0.0
  9
$SKPOLY
 70
     0
  9
$TDCREATE
 40
2459367.484907407
  9
$TDUCREATE
 40
2459367.109907407
  9
$TDUPDATE
 40
2459367.484907407
  9
$TDUUPDATE
 40
2459367.109907407
  9
$TDINDWG
 40
0.0000000000
  9
$TDUSRTIMER
 40
0.0000000000
  9
$USRTIMER
 70
     1
  9
$ANGBASE
 50
0.0
  9
$ANGDIR
 70
     0
  9
$PDMODE
 70
     0
  9
$PDSIZE
 40
0.0
  9
$PLINEWID
 40
0.0
  9
$SPLFRAME
 70
     0
  9
$SPLINETYPE
 70
     6
  9
$SPLINESEGS
 70
     8
  9
$HANDSEED
  5
600
  9
$SURFTAB1
 70
     6
  9
$SURFTAB2
 70
     6
  9
$SURFTYPE
 70
     6
  9
$SURFU
 70
     6
  9
$SURFV
 70
     6
  9
$UCSBASE
  2

  9
$UCSNAME
  2

  9
$UCSORG
 10
0.0
 20
0.0
 30
0.0
  9
$UCSXDIR
 10
1.0
 20
0.0
 30
0.0
  9
$UCSYDIR
 10
0.0
 20
1.0
 30
0.0
  9
$UCSORTHOREF
  2

  9
$UCSORTHOVIEW
 70
     0
  9
$UCSORGTOP
 10
0.0
 20
0.0
 30
0.0
  9
$UCSORGBOTTOM
 10
0.0
 20
0.0
 30
0.0
  9
$UCSORGLEFT
 10
0.0
 20
0.0
 30
0.0
  9
$UCSORGRIGHT
 10
0.0
 20
0.0
 30
0.0
  9
$UCSORGFRONT
 10
0.0
 20
0.0
 30
0.0
  9
$UCSORGBACK
 10
0.0
 20
0.0
 30
0.0
  9
$PUCSBASE
  2

  9
$PUCSNAME
  2

  9
$PUCSORG
 10
0.0
 20
0.0
 30
0.0
  9
$PUCSXDIR
 10
1.0
 20
0.0
 30
0.0
  9
$PUCSYDIR
 10
0.0
 20
1.0
 30
0.0
  9
$PUCSORTHOREF
  2

  9
$PUCSORTHOVIEW
 70
     0
  9
$PUCSORGTOP
 10
0.0
 20
0.0
 30
0.0
  9
$PUCSORGBOTTOM
 10
0.0
 20
0.0
 30
0.0
  9
$PUCSORGLEFT
 10
0.0
 20
0.0
 30
0.0
  9
$PUCSORGRIGHT
 10
0.0
 20
0.0
 30
0.0
  9
$PUCSORGFRONT
 10
0.0
 20
0.0
 30
0.0
  9
$PUCSORGBACK
 10
0.0
 20
0.0
 30
0.0
  9
$USERI1
 70
     0
  9
$USERI2
 70
     0
  9
$USERI3
 70
     0
  9
$USERI4
 70
     0
  9
$USERI5
 70
     0
  9
$USERR1
 40
0.0
  9
$USERR2
 40
0.0
  9
$USERR3
 40
0.0
  9
$USERR4
 40
0.0
  9
$USERR5
 40
0.0
  9
$WORLDVIEW
 70
     1
  9
$SHADEDGE
 70
     3
  9
$SHADEDIF
 70
    70
  9
$TILEMODE
 70
     1
  9
$MAXACTVP
 70
    64
  9
$PINSBASE
 10
0.0
 20
0.0
 30
0.0
  9
$PLIMCHECK
 70
     0
  9
$PEXTMIN
 10
1.000000000000000E+20
 20
1.000000000000000E+20
 30
1.000000000000000E+20
  9
$PEXTMAX
 10
-1.000000000000000E+20
 20
-1.000000000000000E+20
 30
-1.000000000000000E+20
  9
$PLIMMIN
 10
0.0
 20
0.0
  9
$PLIMMAX
 10
12.0
 20
9.0
  9
$UNITMODE
 70
     0
  9
$VISRETAIN
 70
     1
  9
$PLINEGEN
 70
     0
  9
$PSLTSCALE
 70
     1
  9
$TREEDEPTH
 70
  3020
  9
$CMLSTYLE
  2
Standard
  9
$CMLJUST
 70
     0
  9
$CMLSCALE
 40
1.0
  9
$PROXYGRAPHICS
 70
     1
  9
$MEASUREMENT
 70
     0
  9
$CELWEIGHT
370
    -1
  9
$ENDCAPS
280
     0
  9
$JOINSTYLE
280
     0
  9
$LWDISPLAY
290
     0
  9
$INSUNITS
 70
     0
  9
$HYPERLINKBASE
  1

  9
$STYLESHEET
  1

  9
$XEDIT
290
     1
  9
$CEPSNTYPE
380
     0
  9
$PSTYLEMODE
290
     1
  9
$FINGERPRINTGUID
  2
{0D35EE7D-6A4C-4244-BAFB-05D801257282}
  9
$VERSIONGUID
  2
{84BD471B-3AE7-6246-BE8B-CE72051E288D}
  9
$EXTNAMES
290
     1
  9
$PSVPSCALE
 40
0.0
  9
$OLESTARTUP
290
     0
  9
$SORTENTS
280
   127
  9
$INDEXCTL
280
     0
  9
$HIDETEXT
280
     0
  9
$XCLIPFRAME
280
     2
  9
$HALOGAP
280
     0
  9
$OBSCOLOR
 70
   257
  9
$OBSLTYPE
280
     0
  9
$INTERSECTIONDISPLAY
280
     0
  9
$INTERSECTIONCOLOR
 70
   257
  9
$DIMASSOC
280
     1
  9
$PROJECTNAME
  1

  9
$CAMERADISPLAY
290
     0
  9
$LENSLENGTH
 40
50.0
  9
$CAMERAHEIGHT
 40
0.0
  9
$STEPSPERSEC
 40
2.0
  9
$STEPSIZE
 40
6.0
  9
$3DDWFPREC
 40
2.0
  9
$PSOLWIDTH
 40
0.25
  9
$PSOLHEIGHT
 40
4.0
  9
$LOFTANG1
 40
1.570796326794896
  9
$LOFTANG2
 40
1.570796326794896
  9
$LOFTMAG1
 40
0.0
  9
$LOFTMAG2
 40
0.0
  9
$LOFTPARAM
 70
     7
  9
$LOFTNORMALS
280
     1
  9
$LATITUDE
 40
37.795
  9
$LONGITUDE
 40
-122.394
  9
$NORTHDIRECTION
 40
0.0
  9
$TIMEZONE
 70
 -8000
  9
$LIGHTGLYPHDISPLAY
280
     1
  9
$TILEMODELIGHTSYNCH
280
     1
  9
$CMATERIAL
347
11
  9
$SOLIDHIST
280
     0
  9
$SHOWHIST
280
     1
  9
$DWFFRAME
280
     2
  9
$DGNFRAME
280
     0
  9
$REALWORLDSCALE
290
     1
  9
$INTERFERECOLOR
 62
     1
  9
$INTERFEREOBJVS
345
33
  9
$INTERFEREVPVS
346
30
  9
$CSHADOW
280
     0
  9
$SHADOWPLANELOCATION
 40
0.0
  0
ENDSEC
  0
SECTION
  2
CLASSES
  0
CLASS
  1
ACDBDICTIONARYWDFLT
  2
AcDbDictionaryWithDefault
  3
ObjectDBX Classes
 90
        0
 91
        1
280
     0
281
     0
  0
CLASS
  1
MATERIAL
  2
AcDbMaterial
  3
ObjectDBX Classes
 90
     1153
 91
        3
280
     0
281
     0
  0
CLASS
  1
VISUALSTYLE
  2
AcDbVisualStyle
  3
ObjectDBX Classes
 90
     4095
 91
       24
280
     0
281
     0
  0
CLASS
  1
SCALE
  2
AcDbScale
  3
ObjectDBX Classes
 90
     1153
 91
       17
280
     0
281
     0
  0
CLASS
  1
TABLESTYLE
  2
AcDbTableStyle
  3
ObjectDBX Classes
 90
     4095
 91
        1
280
     0
281
     0
  0
CLASS
  1
MLEADERSTYLE
  2
AcDbMLeaderStyle
  3
ACDB_MLEADERSTYLE_CLASS
 90
     4095
 91
        1
280
     0
281
     0
  0
CLASS
  1
ACDBSECTIONVIEWSTYLE
  2
AcDbSectionViewStyle
  3
ObjectDBX Classes
 90
     1025
 91
        1
280
     0
281
     0
  0
CLASS
  1
ACDBDETAILVIEWSTYLE
  2
AcDbDetailViewStyle
  3
ObjectDBX Classes
 90
     1025
 91
        1
280
     0
281
     0
  0
CLASS
  1
DICTIONARYVAR
  2
AcDbDictionaryVar
  3
ObjectDBX Classes
 90
        0
 91
        9
280
     0
281
     0
  0
CLASS
  1
CELLSTYLEMAP
  2
AcDbCellStyleMap
  3
ObjectDBX Classes
 90
     1152
 91
        1
280
     0
281
     0
  0
ENDSEC
  0
SECTION
  2
TABLES
  0
TABLE
  2
VPORT
  5
8
330
0
100
AcDbSymbolTable
 70
     1
  0
VPORT
  5
A8
330
8
100
AcDbSymbolTableRecord
100
AcDbViewportTableRecord
  2
*Active
 70
     0
 10
0.0
 20
0.0
 11
1.0
 21
1.0
 12
500.0
 22
500.0
 13
0.0
 23
0.0
 14
1.0
 24
1.0
 15
0.0
 25
0.0
 16
0.0
 26
0.0
 36
1.0
 17
0.0
 27
0.0
 37
0.0
 40
12.0
 41
1.0
 42
50.0
 43
0.0
 44
0.0
 50
0.0
 51
0.0
 71
     0
 72
   100
 73
     1
 74
     1
 75
     0
 76
     0
 77
     0
 78
     0
281
     0
 65
     1
110
0.0
120
0.0
130
0.0
111
1.0
121
0.0
131
0.0
112
0.0
122
1.0
132
0.0
 79
     0
146
0.0
348
2F
 60
     3
 61
     5
292
     1
282
     1
141
0.0
142
0.0
 63
   250
421
  3355443
  0
ENDTAB
  0
TABLE
  2
LTYPE
  5
5
330
0
100
AcDbSymbolTable
 70
    35
  0
LTYPE
  5
5A
330
5
100
AcDbSymbolTableRecord
100
AcDbLinetypeTableRecord
  2
ByBlock
 70
     0
  3

 72
    65
 73
     0
 40
0.0
  0
LTYPE
  5
5B
330
5
100
AcDbSymbolTableRecord
100
AcDbLinetypeTableRecord
  2
ByLayer
 70
     0
  3

 72
    65
 73
     0
 40
0.0
  0
LTYPE
  5
5C
330
5
100
AcDbSymbolTableRecord
100
AcDbLinetypeTableRecord
  2
CONTINUOUS
 70
     0
  3
実線
 72
    65
 73
     0
 40
0.0
  0
LTYPE
  5
73
330
5
100
AcDbSymbolTableRecord
100
AcDbLinetypeTableRecord
  2
DASHED1
 70
     0
  3
--  --  --  --  --  --  --  --  
 72
    65
 73
     2
 40
2.5
 49
1.25
 74
     0
 49
-1.25
 74
     0
  0
LTYPE
  5
74
330
5
100
AcDbSymbolTableRecord
100
AcDbLinetypeTableRecord
  2
DASHED2
 70
     0
  3
----    ----    ----    ----    
 72
    65
 73
     2
 40
5.0
 49
2.5
 74
     0
 49
-2.5
 74
     0
  0
LTYPE
  5
75
330
5
100
AcDbSymbolTableRecord
100
AcDbLinetypeTableRecord
  2
DASHED3
 70
     0
  3
------  ------  ------  ------  
 72
    65
 73
     2
 40
5.0
 49
3.75
 74
     0
 49
-1.25
 74
     0
  0
LTYPE
  5
76
330
5
100
AcDbSymbolTableRecord
100
AcDbLinetypeTableRecord
  2
CENTER1
 70
     0
  3
----- - ----- - ----- - ----- - 
 72
    65
 73
     4
 40
10.0
 49
6.25
 74
     0
 49
-1.25
 74
     0
 49
1.25
 74
     0
 49
-1.25
 74
     0
  0
LTYPE
  5
77
330
5
100
AcDbSymbolTableRecord
100
AcDbLinetypeTableRecord
  2
CENTER2
 70
     0
  3
----------  --  ----------  --  
 72
    65
 73
     4
 40
20.0
 49
12.5
 74
     0
 49
-2.5
 74
     0
 49
2.5
 74
     0
 49
-2.5
 74
     0
  0
LTYPE
  5
78
330
5
100
AcDbSymbolTableRecord
100
AcDbLinetypeTableRecord
  2
PHANTOM1
 70
     0
  3
--- - - --- - - --- - - --- - - 
 72
    65
 73
     6
 40
10.0
 49
3.25
 74
     0
 49
-1.25
 74
     0
 49
1.25
 74
     0
 49
-1.25
 74
     0
 49
1.25
 74
     0
 49
-1.25
 74
     0
  0
LTYPE
  5
79
330
5
100
AcDbSymbolTableRecord
100
AcDbLinetypeTableRecord
  2
PHANTOM2
 70
     0
  3
--------  -  -  --------  -  -  
 72
    65
 73
     6
 40
20.0
 49
10.0
 74
     0
 49
-2.5
 74
     0
 49
1.25
 74
     0
 49
-2.5
 74
     0
 49
1.25
 74
     0
 49
-2.5
 74
     0
  0
LTYPE
  5
7A
330
5
100
AcDbSymbolTableRecord
100
AcDbLinetypeTableRecord
  2
DOT
 70
     0
  3
-   -   -   -   -   -   -   -   
 72
    65
 73
     2
 40
2.5
 49
0.625
 74
     0
 49
-1.875
 74
     0
  0
LTYPE
  5
7B
330
5
100
AcDbSymbolTableRecord
100
AcDbLinetypeTableRecord
  2
DUMMY
 70
     0
  3
ダミー
 72
    65
 73
     0
 40
0.0
  0
LTYPE
  5
7C
330
5
100
AcDbSymbolTableRecord
100
AcDbLinetypeTableRecord
  2
RAND1
 70
     0
  3
ランダム線1
 72
    65
 73
     4
 40
10.0
 49
1.0
 74
     0
 49
-2.0
 74
     0
 49
3.0
 74
     0
 49
-4.0
 74
     0
  0
LTYPE
  5
7D
330
5
100
AcDbSymbolTableRecord
100
AcDbLinetypeTableRecord
  2
RAND2
 70
     0
  3
ランダム線2
 72
    65
 73
     4
 40
14.0
 49
2.0
 74
     0
 49
-3.0
 74
     0
 49
4.0
 74
     0
 49
-5.0
 74
     0
  0
LTYPE
  5
7E
330
5
100
AcDbSymbolTableRecord
100
AcDbLinetypeTableRecord
  2
RAND3
 70
     0
  3
ランダム線3
 72
    65
 73
     4
 40
18.0
 49
3.0
 74
     0
 49
-4.0
 74
     0
 49
5.0
 74
     0
 49
-6.0
 74
     0
  0
LTYPE
  5
7F
330
5
100
AcDbSymbolTableRecord
100
AcDbLinetypeTableRecord
  2
RAND4
 70
     0
  3
ランダム線4
 72
    65
 73
     4
 40
22.0
 49
4.0
 74
     0
 49
-5.0
 74
     0
 49
6.0
 74
     0
 49
-7.0
 74
     0
  0
LTYPE
  5
80
330
5
100
AcDbSymbolTableRecord
100
AcDbLinetypeTableRecord
  2
RAND5
 70
     0
  3
ランダム線5
 72
    65
 73
     4
 40
26.0
 49
5.0
 74
     0
 49
-6.0
 74
     0
 49
7.0
 74
     0
 49
-8.0
 74
     0
  0
LTYPE
  5
81
330
5
100
AcDbSymbolTableRecord
100
AcDbLinetypeTableRecord
  2
LONG1
 70
     0
  3
----------  --  ----------  --  
 72
    65
 73
     4
 40
40.0
 49
32.5
 74
     0
 49
-2.5
 74
     0
 49
2.5
 74
     0
 49
-2.5
 74
     0
  0
LTYPE
  5
82
330
5
100
AcDbSymbolTableRecord
100
AcDbLinetypeTableRecord
  2
LONG2
 70
     0
  3
--------  -  -  --------  -  -  
 72
    65
 73
     6
 40
40.0
 49
30.0
 74
     0
 49
-2.5
 74
     0
 49
1.25
 74
     0
 49
-2.5
 74
     0
 49
1.25
 74
     0
 49
-2.5
 74
     0
  0
LTYPE
  5
83
330
5
100
AcDbSymbolTableRecord
100
AcDbLinetypeTableRecord
  2
LONG3
 70
     0
  3
+++++++++++++++..+++++++++++++++
 72
    65
 73
     2
 40
40.0
 49
37.5
 74
     0
 49
-2.5
 74
     0
  0
LTYPE
  5
84
330
5
100
AcDbSymbolTableRecord
100
AcDbLinetypeTableRecord
  2
LONG4
 70
     0
  3
+++++++++++++++..+++++++++++++++
 72
    65
 73
     2
 40
80.0
 49
75.0
 74
     0
 49
-5.0
 74
     0
  0
LTYPE
  5
85
330
5
100
AcDbSymbolTableRecord
100
AcDbLinetypeTableRecord
  2
LONG5
 70
     0
  3
----------  --  ----------  --  
 72
    65
 73
     4
 40
60.0
 49
37.5
 74
     0
 49
-7.5
 74
     0
 49
7.5
 74
     0
 49
-7.5
 74
     0
  0
LTYPE
  5
86
330
5
100
AcDbSymbolTableRecord
100
AcDbLinetypeTableRecord
  2
DASHED
 70
     0
  3
-------   -------------   ------
 72
    65
 73
     2
 40
7.5
 49
6.0
 74
     0
 49
-1.5
 74
     0
  0
LTYPE
  5
87
330
5
100
AcDbSymbolTableRecord
100
AcDbLinetypeTableRecord
  2
DASHED_SPACED
 70
     0
  3
----        --------        ----
 72
    65
 73
     2
 40
12.0
 49
6.0
 74
     0
 49
-6.0
 74
     0
  0
LTYPE
  5
88
330
5
100
AcDbSymbolTableRecord
100
AcDbLinetypeTableRecord
  2
LONG_DASHED_DOTTED
 70
     0
  3
------------- --- --------------
 72
    65
 73
     4
 40
15.25
 49
12.0
 74
     0
 49
-1.5
 74
     0
 49
0.25
 74
     0
 49
-1.5
 74
     0
  0
LTYPE
  5
89
330
5
100
AcDbSymbolTableRecord
100
AcDbLinetypeTableRecord
  2
LONG_DASHED_DOUBLE-DOTTED
 70
     0
  3
----------- --- --- ------------
 72
    65
 73
     6
 40
17.0
 49
12.0
 74
     0
 49
-1.5
 74
     0
 49
0.25
 74
     0
 49
-1.5
 74
     0
 49
0.25
 74
     0
 49
-1.5
 74
     0
  0
LTYPE
  5
8A
330
5
100
AcDbSymbolTableRecord
100
AcDbLinetypeTableRecord
  2
LONG_DASHED_TRIPLICATE-DOTTED
 70
     0
  3
--------- --- --- --- ----------
 72
    65
 73
     8
 40
18.75
 49
12.0
 74
     0
 49
-1.5
 74
     0
 49
0.25
 74
     0
 49
-1.5
 74
     0
 49
0.25
 74
     0
 49
-1.5
 74
     0
 49
0.25
 74
     0
 49
-1.5
 74
     0
  0
LTYPE
  5
8B
330
5
100
AcDbSymbolTableRecord
100
AcDbLinetypeTableRecord
  2
DOTTED
 70
     0
  3
   -       -       -       -    
 72
    65
 73
     2
 40
1.75
 49
0.25
 74
     0
 49
-1.5
 74
     0
  0
LTYPE
  5
8C
330
5
100
AcDbSymbolTableRecord
100
AcDbLinetypeTableRecord
  2
CHAIN
 70
     0
  3
-------------- -- --------------
 72
    65
 73
     4
 40
18.5
 49
12.0
 74
     0
 49
-1.5
 74
     0
 49
3.5
 74
     0
 49
-1.5
 74
     0
  0
LTYPE
  5
8D
330
5
100
AcDbSymbolTableRecord
100
AcDbLinetypeTableRecord
  2
CHAIN_DOUBLE_DASH
 70
     0
  3
------------ -- -- -------------
 72
    65
 73
     6
 40
23.5
 49
12.0
 74
     0
 49
-1.5
 74
     0
 49
3.5
 74
     0
 49
-1.5
 74
     0
 49
3.5
 74
     0
 49
-1.5
 74
     0
  0
LTYPE
  5
8E
330
5
100
AcDbSymbolTableRecord
100
AcDbLinetypeTableRecord
  2
DASHED_DOTTED
 70
     0
  3
-----------     -     ----------
 72
    65
 73
     4
 40
9.25
 49
6.0
 74
     0
 49
-1.5
 74
     0
 49
0.25
 74
     0
 49
-1.5
 74
     0
  0
LTYPE
  5
8F
330
5
100
AcDbSymbolTableRecord
100
AcDbLinetypeTableRecord
  2
DOUBLE-DASHED_DOTTED
 70
     0
  3
------   -----------   -   -----
 72
    65
 73
     6
 40
16.75
 49
6.0
 74
     0
 49
-1.5
 74
     0
 49
6.0
 74
     0
 49
-1.5
 74
     0
 49
0.25
 74
     0
 49
-1.5
 74
     0
  0
LTYPE
  5
90
330
5
100
AcDbSymbolTableRecord
100
AcDbLinetypeTableRecord
  2
DASHED_DOUBLE-DOTTED
 70
     0
  3
---------    -    -    ---------
 72
    65
 73
     6
 40
11.0
 49
6.0
 74
     0
 49
-1.5
 74
     0
 49
0.25
 74
     0
 49
-1.5
 74
     0
 49
0.25
 74
     0
 49
-1.5
 74
     0
  0
LTYPE
  5
91
330
5
100
AcDbSymbolTableRecord
100
AcDbLinetypeTableRecord
  2
DOUBLE-DASHED_DOUBLE-DOTTED
 70
     0
  3
-----   ---------   -   -   ----
 72
    65
 73
     8
 40
18.5
 49
6.0
 74
     0
 49
-1.5
 74
     0
 49
6.0
 74
     0
 49
-1.5
 74
     0
 49
0.25
 74
     0
 49
-1.5
 74
     0
 49
0.25
 74
     0
 49
-1.5
 74
     0
  0
LTYPE
  5
92
330
5
100
AcDbSymbolTableRecord
100
AcDbLinetypeTableRecord
  2
DASHED_TRIPLICATE-DOTTED
 70
     0
  3
-------    -    -    -    ------
 72
    65
 73
     8
 40
12.75
 49
6.0
 74
     0
 49
-1.5
 74
     0
 49
0.25
 74
     0
 49
-1.5
 74
     0
 49
0.25
 74
     0
 49
-1.5
 74
     0
 49
0.25
 74
     0
 49
-1.5
 74
     0
  0
LTYPE
  5
93
330
5
100
AcDbSymbolTableRecord
100
AcDbLinetypeTableRecord
  2
DOUBLE-DASHED_TRIPLICATE-DOTTED
 70
     0
  3
-----  ---------  -  -  -  -----
 72
    65
 73
    10
 40
20.25
 49
6.0
 74
     0
 49
-1.5
 74
     0
 49
6.0
 74
     0
 49
-1.5
 74
     0
 49
0.25
 74
     0
 49
-1.5
 74
     0
 49
0.25
 74
     0
 49
-1.5
 74
     0
 49
0.25
 74
     0
 49
-1.5
 74
     0
  0
LTYPE
  5
94
330
5
100
AcDbSymbolTableRecord
100
AcDbLinetypeTableRecord
  2
UNDEFINED
 70
     0
  3
--------------------------------
 72
    65
 73
     0
 40
0.0
  0
ENDTAB
  0
TABLE
  2
LAYER
  5
2
330
0
100
AcDbSymbolTable
 70
    20
  0
LAYER
  5
54
330
2
100
AcDbSymbolTableRecord
100
AcDbLayerTableRecord
  2
0
 70
     0
 62
     7
  6
CONTINUOUS
370
    -3
390
F
347
21
348
0
  0
LAYER
  5
96
330
2
100
AcDbSymbolTableRecord
100
AcDbLayerTableRecord
  2
_2-0_境界線
 70
     0
 62
     7
  6
CONTINUOUS
370
    -3
390
F
347
21
348
0
  0
LAYER
  5
97
330
2
100
AcDbSymbolTableRecord
100
AcDbLayerTableRecord
  2
_2-1_工作物
 70
     0
 62
     7
  6
CONTINUOUS
370
    -3
390
F
347
21
348
0
  0
LAYER
  5
98
330
2
100
AcDbSymbolTableRecord
100
AcDbLayerTableRecord
  2
_2-2_舗装
 70
     0
 62
     7
  6
CONTINUOUS
370
    -3
390
F
347
21
348
0
  0
LAYER
  5
99
330
2
100
AcDbSymbolTableRecord
100
AcDbLayerTableRecord
  2
_2-3_植栽
 70
     0
 62
     7
  6
CONTINUOUS
370
    -3
390
F
347
21
348
0
  0
LAYER
  5
9A
330
2
100
AcDbSymbolTableRecord
100
AcDbLayerTableRecord
  2
_2-4_仕上げ
 70
     0
 62
     7
  6
CONTINUOUS
370
    -3
390
F
347
21
348
0
  0
LAYER
  5
9B
330
2
100
AcDbSymbolTableRecord
100
AcDbLayerTableRecord
  2
_2-5_建具枠
 70
     0
 62
     7
  6
CONTINUOUS
370
    -3
390
F
347
21
348
0
  0
LAYER
  5
9C
330
2
100
AcDbSymbolTableRecord
100
AcDbLayerTableRecord
  2
_2-6_建具
 70
     0
 62
     7
  6
CONTINUOUS
370
    -3
390
F
347
21
348
0
  0
LAYER
  5
9D
330
2
100
AcDbSymbolTableRecord
100
AcDbLayerTableRecord
  2
_2-B_敷地外要素
 70
     0
 62
     7
  6
CONTINUOUS
370
    -3
390
F
347
21
348
0
  0
LAYER
  5
9E
330
2
100
AcDbSymbolTableRecord
100
AcDbLayerTableRecord
  2
_2-C_ハッチ
 70
     0
 62
     7
  6
CONTINUOUS
370
    -3
390
F
347
21
348
0
  0
LAYER
  5
9F
330
2
100
AcDbSymbolTableRecord
100
AcDbLayerTableRecord
  2
_2-D_寸法
 70
     0
 62
     7
  6
CONTINUOUS
370
    -3
390
F
347
21
348
0
  0
LAYER
  5
A0
330
2
100
AcDbSymbolTableRecord
100
AcDbLayerTableRecord
  2
_2-E_文字
 70
     0
 62
     7
  6
CONTINUOUS
370
    -3
390
F
347
21
348
0
  0
LAYER
  5
A1
330
2
100
AcDbSymbolTableRecord
100
AcDbLayerTableRecord
  2
_2-F_補助線
 70
     0
 62
     7
  6
CONTINUOUS
370
    -3
390
F
347
21
348
0
  0
LAYER
  5
A2
330
2
100
AcDbSymbolTableRecord
100
AcDbLayerTableRecord
  2
_F-0_F-0___
 70
     0
 62
     7
  6
CONTINUOUS
370
    -3
390
F
347
21
348
0
  0
LAYER
  5
A3
330
2
100
AcDbSymbolTableRecord
100
AcDbLayerTableRecord
  2
_F-1_図面枠
 70
     0
 62
     7
  6
CONTINUOUS
370
    -3
390
F
347
21
348
0
  0
LAYER
  5
A4
330
2
100
AcDbSymbolTableRecord
100
AcDbLayerTableRecord
  2
_F-F_補助線
 70
     0
 62
     7
  6
CONTINUOUS
370
    -3
390
F
347
21
348
0
  0
LAYER
  5
A5
330
2
100
AcDbSymbolTableRecord
100
AcDbLayerTableRecord
  2
ADD_LINE
 70
     0
 62
     7
  6
CONTINUOUS
370
    -3
390
F
347
21
348
0
  0
LAYER
  5
AB
330
2
100
AcDbSymbolTableRecord
100
AcDbLayerTableRecord
  2
_1-f_補助線
 70
     0
 62
     7
  6
CONTINUOUS
370
    -3
390
F
347
21
348
0
  0
LAYER
  5
AE
330
2
100
AcDbSymbolTableRecord
100
AcDbLayerTableRecord
  2
_1-d_寸法
 70
     0
 62
     7
  6
CONTINUOUS
370
    -3
390
F
347
21
348
0
  0
LAYER
  5
B6
330
2
100
AcDbSymbolTableRecord
100
AcDbLayerTableRecord
  2
_1-e_文字
 70
     0
 62
     7
  6
CONTINUOUS
370
    -3
390
F
347
21
348
0
  0
ENDTAB
  0
TABLE
  2
STYLE
  5
3
330
0
100
AcDbSymbolTable
 70
     3
  0
STYLE
  5
55
330
3
100
AcDbSymbolTableRecord
100
AcDbTextStyleTableRecord
  2
STANDARD
 70
     0
 40
0.0
 41
1.0
 50
0.0
 71
     0
 42
0.2
  3
txt
  4
bigfont.shx
  0
STYLE
  5
59
330
3
100
AcDbSymbolTableRecord
100
AcDbTextStyleTableRecord
  2
Annotative
 70
     0
 40
0.0
 41
1.0
 50
0.0
 71
     0
 42
0.2
  3
txt
  4

1001
AcadAnnotative
1000
AnnotativeData
1002
{
1070
     1
1070
     1
1002
}
  0
STYLE
  5
95
330
3
100
AcDbSymbolTableRecord
100
AcDbTextStyleTableRecord
  2
TATEGAKI
 70
     4
 40
0.0
 41
1.0
 50
0.0
 71
     0
 42
1.0
  3
txt
  4
bigfont.shx
  0
ENDTAB
  0
TABLE
  2
VIEW
  5
6
330
0
100
AcDbSymbolTable
 70
     0
  0
ENDTAB
  0
TABLE
  2
UCS
  5
7
330
0
100
AcDbSymbolTable
 70
     0
  0
ENDTAB
  0
TABLE
  2
APPID
  5
9
330
0
100
AcDbSymbolTable
 70
     2
  0
APPID
  5
56
330
9
100
AcDbSymbolTableRecord
100
AcDbRegAppTableRecord
  2
ACAD
 70
     0
  0
APPID
  5
5D
330
9
100
AcDbSymbolTableRecord
100
AcDbRegAppTableRecord
  2
AcadAnnotative
 70
     0
  0
ENDTAB
  0
TABLE
  2
DIMSTYLE
  5
A
330
0
100
AcDbSymbolTable
 70
     2
100
AcDbDimStyleTable
 71
     0
  0
DIMSTYLE
105
57
330
A
100
AcDbSymbolTableRecord
100
AcDbDimStyleTableRecord
  2
Standard
 70
     0
340
55
  0
DIMSTYLE
105
58
330
A
100
AcDbSymbolTableRecord
100
AcDbDimStyleTableRecord
  2
Annotative
 70
     0
340
55
1001
AcadAnnotative
1000
AnnotativeData
1002
{
1070
     1
1070
     1
1002
}
  0
ENDTAB
  0
TABLE
  2
BLOCK_RECORD
  5
1
330
0
100
AcDbSymbolTable
 70
    15
  0
BLOCK_RECORD
  5
6F
330
1
100
AcDbSymbolTableRecord
100
AcDbBlockTableRecord
  2
*Model_Space
340
72
 70
     0
280
     1
281
     0
  0
BLOCK_RECORD
  5
6B
330
1
100
AcDbSymbolTableRecord
100
AcDbBlockTableRecord
  2
*Paper_Space
340
6E
 70
     0
280
     1
281
     0
  0
BLOCK_RECORD
  5
A9
330
1
100
AcDbSymbolTableRecord
100
AcDbBlockTableRecord
  2
-000-１
340
0
102
{BLKREFS
331
5F0
102
}
 70
     0
280
     1
281
     0
  0
BLOCK_RECORD
  5
B2
330
1
100
AcDbSymbolTableRecord
100
AcDbBlockTableRecord
  2
-001-２
340
0
102
{BLKREFS
331
5E4
102
}
 70
     0
280
     1
281
     0
  0
BLOCK_RECORD
  5
BA
330
1
100
AcDbSymbolTableRecord
100
AcDbBlockTableRecord
  2
-002-5
340
0
102
{BLKREFS
331
5E6
102
}
 70
     0
280
     1
281
     0
  0
BLOCK_RECORD
  5
C1
330
1
100
AcDbSymbolTableRecord
100
AcDbBlockTableRecord
  2
-003-6
340
0
102
{BLKREFS
331
5E7
102
}
 70
     0
280
     1
281
     0
  0
BLOCK_RECORD
  5
C8
330
1
100
AcDbSymbolTableRecord
100
AcDbBlockTableRecord
  2
-004-7
340
0
102
{BLKREFS
331
5E8
102
}
 70
     0
280
     1
281
     0
  0
BLOCK_RECORD
  5
CF
330
1
100
AcDbSymbolTableRecord
100
AcDbBlockTableRecord
  2
-005-8
340
0
102
{BLKREFS
331
5E9
102
}
 70
     0
280
     1
281
     0
  0
BLOCK_RECORD
  5
D6
330
1
100
AcDbSymbolTableRecord
100
AcDbBlockTableRecord
  2
-006-9
340
0
102
{BLKREFS
331
5EA
102
}
 70
     0
280
     1
281
     0
  0
BLOCK_RECORD
  5
DD
330
1
100
AcDbSymbolTableRecord
100
AcDbBlockTableRecord
  2
-007-10
340
0
102
{BLKREFS
331
5EB
102
}
 70
     0
280
     1
281
     0
  0
BLOCK_RECORD
  5
E4
330
1
100
AcDbSymbolTableRecord
100
AcDbBlockTableRecord
  2
-008-10_
340
0
102
{BLKREFS
331
5EC
102
}
 70
     0
280
     1
281
     0
  0
BLOCK_RECORD
  5
EB
330
1
100
AcDbSymbolTableRecord
100
AcDbBlockTableRecord
  2
-009-11S
340
0
102
{BLKREFS
331
5ED
102
}
 70
     0
280
     1
281
     0
  0
BLOCK_RECORD
  5
F2
330
1
100
AcDbSymbolTableRecord
100
AcDbBlockTableRecord
  2
-010-12
340
0
102
{BLKREFS
331
5EE
102
}
 70
     0
280
     1
281
     0
  0
BLOCK_RECORD
  5
F9
330
1
100
AcDbSymbolTableRecord
100
AcDbBlockTableRecord
  2
-011-13
340
0
102
{BLKREFS
331
5EF
102
}
 70
     0
280
     1
281
     0
  0
BLOCK_RECORD
  5
100
330
1
100
AcDbSymbolTableRecord
100
AcDbBlockTableRecord
  2
-012-4
340
0
102
{BLKREFS
331
5E5
102
}
 70
     0
280
     1
281
     0
  0
BLOCK_RECORD
  5
107
330
1
100
AcDbSymbolTableRecord
100
AcDbBlockTableRecord
  2
-013-3
340
0
102
{BLKREFS
331
5F1
102
}
 70
     0
280
     1
281
     0
  0
BLOCK_RECORD
  5
10E
330
1
100
AcDbSymbolTableRecord
100
AcDbBlockTableRecord
  2
-014-3_
340
0
102
{BLKREFS
331
5F2
102
}
 70
     0
280
     1
281
     0
  0
ENDTAB
  0
ENDSEC
  0
SECTION
  2
BLOCKS
  0
BLOCK
  5
70
330
6F
100
AcDbEntity
  8
0
100
AcDbBlockBegin
  2
*Model_Space
 70
     0
 10
0.0
 20
0.0
 30
0.0
  3
*Model_Space
  1

  0
ENDBLK
  5
71
330
6F
100
AcDbEntity
  8
0
100
AcDbBlockEnd
  0
BLOCK
  5
6C
330
6B
100
AcDbEntity
 67
     1
  8
0
100
AcDbBlockBegin
  2
*Paper_Space
 70
     0
 10
0.0
 20
0.0
 30
0.0
  3
*Paper_Space
  1

  0
ENDBLK
  5
6D
330
6B
100
AcDbEntity
 67
     1
  8
0
100
AcDbBlockEnd
  0
BLOCK
  5
AA
330
A9
100
AcDbEntity
  8
0
100
AcDbBlockBegin
  2
-000-１
 70
     0
 10
0.0
 20
0.0
 30
0.0
  3
-000-１
  1

  0
LINE
  5
AC
330
A9
100
AcDbEntity
  8
_1-f_補助線
  6
Continuous
 62
     9
100
AcDbLine
 10
20.3883514691282
 20
-74.91626057259684
 30
0.0
 11
25.17246081293544
 21
-74.91626057259684
 31
0.0
  0
LINE
  5
AD
330
A9
100
AcDbEntity
  8
_1-f_補助線
  6
Continuous
 62
     9
100
AcDbLine
 10
22.82079199442577
 20
-72.9162605680513
 30
0.0
 11
22.82079199442577
 21
-77.36086368544808
 31
0.0
  0
CIRCLE
  5
AF
330
A9
100
AcDbEntity
  8
_1-d_寸法
  6
Continuous
 62
     4
100
AcDbCircle
 10
22.82079199442577
 20
-74.91626057259684
 30
0.0
 40
2.000000004545554
  0
TEXT
  5
B0
330
A9
100
AcDbEntity
  8
_1-d_寸法
 62
     3
100
AcDbText
 10
22.08183971799983
 20
-76.46383016156019
 30
0.0
 40
3.0
  1
1
 41
0.8333333333333332
100
AcDbText
  0
ENDBLK
  5
B1
330
A9
100
AcDbEntity
  8
0
100
AcDbBlockEnd
  0
BLOCK
  5
B3
330
B2
100
AcDbEntity
  8
0
100
AcDbBlockBegin
  2
-001-２
 70
     0
 10
0.0
 20
0.0
 30
0.0
  3
-001-２
  1

  0
LINE
  5
B4
330
B2
100
AcDbEntity
  8
_1-f_補助線
  6
Continuous
 62
     9
100
AcDbLine
 10
-2.474354966562145
 20
0.3554021463970062
 30
0.0
 11
2.309754377244985
 21
0.3554021463970062
 31
0.0
  0
LINE
  5
B5
330
B2
100
AcDbEntity
  8
_1-f_補助線
  6
Continuous
 62
     9
100
AcDbLine
 10
-0.0419144412645664
 20
2.355402150942561
 30
0.0
 11
-0.0419144412645664
 21
-2.08920096645422
 31
0.0
  0
CIRCLE
  5
B7
330
B2
100
AcDbEntity
  8
_1-e_文字
  6
Continuous
 62
     4
100
AcDbCircle
 10
-0.0419144412645664
 20
0.3554021463970062
 30
0.0
 40
2.000000004545554
  0
TEXT
  5
B8
330
B2
100
AcDbEntity
  8
_1-e_文字
 62
     3
100
AcDbText
 10
-0.6821700866518654
 20
-1.14469370897364
 30
0.0
 40
3.0
  1
2
 41
0.8333333333333332
100
AcDbText
  0
ENDBLK
  5
B9
330
B2
100
AcDbEntity
  8
0
100
AcDbBlockEnd
  0
BLOCK
  5
BB
330
BA
100
AcDbEntity
  8
0
100
AcDbBlockBegin
  2
-002-5
 70
     0
 10
0.0
 20
0.0
 30
0.0
  3
-002-5
  1

  0
LINE
  5
BC
330
BA
100
AcDbEntity
  8
_1-f_補助線
  6
Continuous
 62
     9
100
AcDbLine
 10
-2.418530150602293
 20
0.4305993523808703
 30
0.0
 11
2.365579193204837
 21
0.4305993523808703
 31
0.0
  0
LINE
  5
BD
330
BA
100
AcDbEntity
  8
_1-f_補助線
  6
Continuous
 62
     9
100
AcDbLine
 10
0.0139103746952855
 20
2.430599356926425
 30
0.0
 11
0.0139103746952855
 21
-2.014003760470355
 31
0.0
  0
CIRCLE
  5
BE
330
BA
100
AcDbEntity
  8
_1-e_文字
  6
Continuous
 62
     4
100
AcDbCircle
 10
0.0139103746952855
 20
0.4305993523808703
 30
0.0
 40
2.000000004545554
  0
TEXT
  5
BF
330
BA
100
AcDbEntity
  8
_1-e_文字
 62
     3
100
AcDbText
 10
-0.6263452706917861
 20
-1.069496502989776
 30
0.0
 40
3.0
  1
5
 41
0.8333333333333332
100
AcDbText
  0
ENDBLK
  5
C0
330
BA
100
AcDbEntity
  8
0
100
AcDbBlockEnd
  0
BLOCK
  5
C2
330
C1
100
AcDbEntity
  8
0
100
AcDbBlockBegin
  2
-003-6
 70
     0
 10
0.0
 20
0.0
 30
0.0
  3
-003-6
  1

  0
LINE
  5
C3
330
C1
100
AcDbEntity
  8
_1-f_補助線
  6
Continuous
 62
     9
100
AcDbLine
 10
-2.418530150602236
 20
0.4305993523808703
 30
0.0
 11
2.365579193204894
 21
0.4305993523808703
 31
0.0
  0
LINE
  5
C4
330
C1
100
AcDbEntity
  8
_1-f_補助線
  6
Continuous
 62
     9
100
AcDbLine
 10
0.0139103746953423
 20
2.430599356926425
 30
0.0
 11
0.0139103746953423
 21
-2.014003760470355
 31
0.0
  0
CIRCLE
  5
C5
330
C1
100
AcDbEntity
  8
_1-e_文字
  6
Continuous
 62
     4
100
AcDbCircle
 10
0.0139103746953423
 20
0.4305993523808703
 30
0.0
 40
2.000000004545554
  0
TEXT
  5
C6
330
C1
100
AcDbEntity
  8
_1-e_文字
 62
     3
100
AcDbText
 10
-0.6263452706919565
 20
-1.069496502989776
 30
0.0
 40
3.0
  1
6
 41
0.8333333333333332
100
AcDbText
  0
ENDBLK
  5
C7
330
C1
100
AcDbEntity
  8
0
100
AcDbBlockEnd
  0
BLOCK
  5
C9
330
C8
100
AcDbEntity
  8
0
100
AcDbBlockBegin
  2
-004-7
 70
     0
 10
0.0
 20
0.0
 30
0.0
  3
-004-7
  1

  0
LINE
  5
CA
330
C8
100
AcDbEntity
  8
_1-f_補助線
  6
Continuous
 62
     9
100
AcDbLine
 10
-2.294097714831536
 20
0.4803723266891672
 30
0.0
 11
2.490011628975594
 21
0.4803723266891672
 31
0.0
  0
LINE
  5
CB
330
C8
100
AcDbEntity
  8
_1-f_補助線
  6
Continuous
 62
     9
100
AcDbLine
 10
0.1383428104660424
 20
2.480372331234722
 30
0.0
 11
0.1383428104660424
 21
-1.964230786162058
 31
0.0
  0
TEXT
  5
CC
330
C8
100
AcDbEntity
  8
_1-e_文字
 62
     3
100
AcDbText
 10
-0.999642578004
 20
-1.218815425914666
 30
0.0
 40
3.0
  1
7
 41
0.8333333333333332
100
AcDbText
  0
CIRCLE
  5
CD
330
C8
100
AcDbEntity
  8
_1-e_文字
  6
Continuous
 62
     4
100
AcDbCircle
 10
0.1383428104660424
 20
0.4803723266891672
 30
0.0
 40
2.000000004545554
  0
ENDBLK
  5
CE
330
C8
100
AcDbEntity
  8
0
100
AcDbBlockEnd
  0
BLOCK
  5
D0
330
CF
100
AcDbEntity
  8
0
100
AcDbBlockBegin
  2
-005-8
 70
     0
 10
0.0
 20
0.0
 30
0.0
  3
-005-8
  1

  0
LINE
  5
D1
330
CF
100
AcDbEntity
  8
_1-f_補助線
  6
Continuous
 62
     9
100
AcDbLine
 10
-2.418530150602236
 20
0.4305993523808703
 30
0.0
 11
2.365579193204894
 21
0.4305993523808703
 31
0.0
  0
LINE
  5
D2
330
CF
100
AcDbEntity
  8
_1-f_補助線
  6
Continuous
 62
     9
100
AcDbLine
 10
0.0139103746953423
 20
2.430599356926425
 30
0.0
 11
0.0139103746953423
 21
-2.014003760470355
 31
0.0
  0
CIRCLE
  5
D3
330
CF
100
AcDbEntity
  8
_1-e_文字
  6
Continuous
 62
     4
100
AcDbCircle
 10
0.0139103746953423
 20
0.4305993523808703
 30
0.0
 40
2.000000004545554
  0
TEXT
  5
D4
330
CF
100
AcDbEntity
  8
_1-e_文字
 62
     3
100
AcDbText
 10
-0.6263452706919565
 20
-1.069496502989776
 30
0.0
 40
3.0
  1
8
 41
0.8333333333333332
100
AcDbText
  0
ENDBLK
  5
D5
330
CF
100
AcDbEntity
  8
0
100
AcDbBlockEnd
  0
BLOCK
  5
D7
330
D6
100
AcDbEntity
  8
0
100
AcDbBlockBegin
  2
-006-9
 70
     0
 10
0.0
 20
0.0
 30
0.0
  3
-006-9
  1

  0
LINE
  5
D8
330
D6
100
AcDbEntity
  8
_1-f_補助線
  6
Continuous
 62
     9
100
AcDbLine
 10
-2.418530150602293
 20
0.4305993523808703
 30
0.0
 11
2.365579193204837
 21
0.4305993523808703
 31
0.0
  0
LINE
  5
D9
330
D6
100
AcDbEntity
  8
_1-f_補助線
  6
Continuous
 62
     9
100
AcDbLine
 10
0.0139103746952855
 20
2.430599356926425
 30
0.0
 11
0.0139103746952855
 21
-2.014003760470355
 31
0.0
  0
CIRCLE
  5
DA
330
D6
100
AcDbEntity
  8
_1-e_文字
  6
Continuous
 62
     4
100
AcDbCircle
 10
0.0139103746952855
 20
0.4305993523808703
 30
0.0
 40
2.000000004545554
  0
TEXT
  5
DB
330
D6
100
AcDbEntity
  8
_1-e_文字
 62
     3
100
AcDbText
 10
-0.6263452706917861
 20
-1.069496502989776
 30
0.0
 40
3.0
  1
9
 41
0.8333333333333332
100
AcDbText
  0
ENDBLK
  5
DC
330
D6
100
AcDbEntity
  8
0
100
AcDbBlockEnd
  0
BLOCK
  5
DE
330
DD
100
AcDbEntity
  8
0
100
AcDbBlockBegin
  2
-007-10
 70
     0
 10
0.0
 20
0.0
 30
0.0
  3
-007-10
  1

  0
LINE
  5
DF
330
DD
100
AcDbEntity
  8
_1-f_補助線
  6
Continuous
 62
     9
100
AcDbLine
 10
-2.493530150602225
 20
0.4305993523808703
 30
0.0
 11
2.290579193204905
 21
0.4305993523808703
 31
0.0
  0
LINE
  5
E0
330
DD
100
AcDbEntity
  8
_1-f_補助線
  6
Continuous
 62
     9
100
AcDbLine
 10
-0.0610896253046462
 20
2.430599356926425
 30
0.0
 11
-0.0610896253046462
 21
-2.014003760470355
 31
0.0
  0
CIRCLE
  5
E1
330
DD
100
AcDbEntity
  8
_1-e_文字
  6
Continuous
 62
     4
100
AcDbCircle
 10
-0.0610896253046462
 20
0.4305993523808703
 30
0.0
 40
2.000000004545554
  0
TEXT
  5
E2
330
DD
100
AcDbEntity
  8
_1-e_文字
 62
     3
100
AcDbText
 10
-1.15134527069199
 20
-1.069496502989776
 30
0.0
 40
3.0
  1
10
 41
0.8333333333333332
100
AcDbText
  0
ENDBLK
  5
E3
330
DD
100
AcDbEntity
  8
0
100
AcDbBlockEnd
  0
BLOCK
  5
E5
330
E4
100
AcDbEntity
  8
0
100
AcDbBlockBegin
  2
-008-10_
 70
     0
 10
0.0
 20
0.0
 30
0.0
  3
-008-10_
  1

  0
LINE
  5
E6
330
E4
100
AcDbEntity
  8
_1-f_補助線
  6
Continuous
 62
     9
100
AcDbLine
 10
-2.41897857416626
 20
0.0741005180509457
 30
0.0
 11
2.36513076964087
 21
0.0741005180509457
 31
0.0
  0
LINE
  5
E7
330
E4
100
AcDbEntity
  8
_1-f_補助線
  6
Continuous
 62
     9
100
AcDbLine
 10
0.0134619511313189
 20
2.0741005225965
 30
0.0
 11
0.0134619511313189
 21
-2.370502594800279
 31
0.0
  0
CIRCLE
  5
E8
330
E4
100
AcDbEntity
  8
_1-e_文字
  6
Continuous
 62
     4
100
AcDbCircle
 10
0.0134619511313189
 20
0.0741005180509457
 30
0.0
 40
2.000000004545554
  0
TEXT
  5
E9
330
E4
100
AcDbEntity
  8
_1-e_文字
 62
     3
100
AcDbText
 10
-1.526793694255843
 20
-1.425995337319701
 30
0.0
 40
3.0
  1
10'
 41
0.8333333333333332
100
AcDbText
  0
ENDBLK
  5
EA
330
E4
100
AcDbEntity
  8
0
100
AcDbBlockEnd
  0
BLOCK
  5
EC
330
EB
100
AcDbEntity
  8
0
100
AcDbBlockBegin
  2
-009-11S
 70
     0
 10
0.0
 20
0.0
 30
0.0
  3
-009-11S
  1

  0
TEXT
  5
ED
330
EB
100
AcDbEntity
  8
_1-f_補助線
 62
     3
100
AcDbText
 10
-1.375
 20
0.0
 30
0.0
 40
3.0
  1
11
 41
0.8333333333333332
100
AcDbText
  0
CIRCLE
  5
EE
330
EB
100
AcDbEntity
  8
_1-f_補助線
  6
Continuous
 62
     4
100
AcDbCircle
 10
0.0285549758783645
 20
1.541368544578952
 30
0.0
 40
2.000000004545554
  0
LINE
  5
EF
330
EB
100
AcDbEntity
  8
_1-f_補助線
  6
Continuous
 62
     9
100
AcDbLine
 10
-2.403885549419214
 20
1.541368544578952
 30
0.0
 11
2.380223794387916
 21
1.541368544578952
 31
0.0
  0
LINE
  5
F0
330
EB
100
AcDbEntity
  8
_1-f_補助線
  6
Continuous
 62
     9
100
AcDbLine
 10
0.0285549758783645
 20
3.541368549124507
 30
0.0
 11
0.0285549758783645
 21
-0.9032345682722732
 31
0.0
  0
ENDBLK
  5
F1
330
EB
100
AcDbEntity
  8
0
100
AcDbBlockEnd
  0
BLOCK
  5
F3
330
F2
100
AcDbEntity
  8
0
100
AcDbBlockBegin
  2
-010-12
 70
     0
 10
0.0
 20
0.0
 30
0.0
  3
-010-12
  1

  0
LINE
  5
F4
330
F2
100
AcDbEntity
  8
_1-f_補助線
  6
Continuous
 62
     9
100
AcDbLine
 10
-2.359659775077375
 20
0.4208144690183104
 30
0.0
 11
2.424449568729755
 21
0.4208144690183104
 31
0.0
  0
LINE
  5
F5
330
F2
100
AcDbEntity
  8
_1-f_補助線
  6
Continuous
 62
     9
100
AcDbLine
 10
0.072780750220204
 20
2.420814473563865
 30
0.0
 11
0.072780750220204
 21
-2.023788643832916
 31
0.0
  0
CIRCLE
  5
F6
330
F2
100
AcDbEntity
  8
_1-e_文字
  6
Continuous
 62
     4
100
AcDbCircle
 10
0.072780750220204
 20
0.4208144690183104
 30
0.0
 40
2.000000004545554
  0
TEXT
  5
F7
330
F2
100
AcDbEntity
  8
_1-e_文字
 62
     3
100
AcDbText
 10
-1.552956397266541
 20
-1.040141852902092
 30
0.0
 40
3.0
  1
12
 41
0.8333333333333332
100
AcDbText
  0
ENDBLK
  5
F8
330
F2
100
AcDbEntity
  8
0
100
AcDbBlockEnd
  0
BLOCK
  5
FA
330
F9
100
AcDbEntity
  8
0
100
AcDbBlockBegin
  2
-011-13
 70
     0
 10
0.0
 20
0.0
 30
0.0
  3
-011-13
  1

  0
LINE
  5
FB
330
F9
100
AcDbEntity
  8
_1-f_補助線
  6
Continuous
 62
     9
100
AcDbLine
 10
-2.434784093995517
 20
0.4509690525152656
 30
0.0
 11
2.349325249811613
 21
0.4509690525152656
 31
0.0
  0
LINE
  5
FC
330
F9
100
AcDbEntity
  8
_1-f_補助線
  6
Continuous
 62
     9
100
AcDbLine
 10
-0.0023435686979382
 20
2.45096905706082
 30
0.0
 11
-0.0023435686979382
 21
-1.99363406033596
 31
0.0
  0
CIRCLE
  5
FD
330
F9
100
AcDbEntity
  8
_1-e_文字
  6
Continuous
 62
     4
100
AcDbCircle
 10
-0.0023435686979382
 20
0.4509690525152656
 30
0.0
 40
2.000000004545554
  0
TEXT
  5
FE
330
F9
100
AcDbEntity
  8
_1-e_文字
 62
     3
100
AcDbText
 10
-1.327583440512228
 20
-1.130605603392963
 30
0.0
 40
3.0
  1
13
 41
0.8333333333333332
100
AcDbText
  0
ENDBLK
  5
FF
330
F9
100
AcDbEntity
  8
0
100
AcDbBlockEnd
  0
BLOCK
  5
101
330
100
100
AcDbEntity
  8
0
100
AcDbBlockBegin
  2
-012-4
 70
     0
 10
0.0
 20
0.0
 30
0.0
  3
-012-4
  1

  0
LINE
  5
102
330
100
100
AcDbEntity
  8
_1-f_補助線
  6
Continuous
 62
     9
100
AcDbLine
 10
-2.418530150602236
 20
0.4305993523808703
 30
0.0
 11
2.365579193204894
 21
0.4305993523808703
 31
0.0
  0
LINE
  5
103
330
100
100
AcDbEntity
  8
_1-f_補助線
  6
Continuous
 62
     9
100
AcDbLine
 10
0.0139103746953423
 20
2.430599356926425
 30
0.0
 11
0.0139103746953423
 21
-2.014003760470355
 31
0.0
  0
CIRCLE
  5
104
330
100
100
AcDbEntity
  8
_1-f_補助線
  6
Continuous
 62
     4
100
AcDbCircle
 10
0.0139103746953423
 20
0.4305993523808703
 30
0.0
 40
2.000000004545554
  0
TEXT
  5
105
330
100
100
AcDbEntity
  8
_1-f_補助線
 62
     3
100
AcDbText
 10
-0.6263452706919565
 20
-1.069496502989775
 30
0.0
 40
3.0
  1
4
 41
0.8333333333333332
100
AcDbText
  0
ENDBLK
  5
106
330
100
100
AcDbEntity
  8
0
100
AcDbBlockEnd
  0
BLOCK
  5
108
330
107
100
AcDbEntity
  8
0
100
AcDbBlockBegin
  2
-013-3
 70
     0
 10
0.0
 20
0.0
 30
0.0
  3
-013-3
  1

  0
LINE
  5
109
330
107
100
AcDbEntity
  8
_1-f_補助線
  6
Continuous
 62
     9
100
AcDbLine
 10
0.0139103746952855
 20
2.430599356926421
 30
0.0
 11
0.0139103746952855
 21
-2.01400376047033
 31
0.0
  0
LINE
  5
10A
330
107
100
AcDbEntity
  8
_1-f_補助線
  6
Continuous
 62
     9
100
AcDbLine
 10
-2.418530150602293
 20
0.4305993523808808
 30
0.0
 11
2.365579193204837
 21
0.4305993523808808
 31
0.0
  0
CIRCLE
  5
10B
330
107
100
AcDbEntity
  8
_1-f_補助線
  6
Continuous
 62
     4
100
AcDbCircle
 10
0.0139103746952855
 20
0.4305993523808808
 30
0.0
 40
2.000000004545554
  0
TEXT
  5
10C
330
107
100
AcDbEntity
  8
_1-f_補助線
 62
     3
100
AcDbText
 10
-0.6263452706917861
 20
-1.069496502989778
 30
0.0
 40
3.0
  1
3
 41
0.8333333333333332
100
AcDbText
  0
ENDBLK
  5
10D
330
107
100
AcDbEntity
  8
0
100
AcDbBlockEnd
  0
BLOCK
  5
10F
330
10E
100
AcDbEntity
  8
0
100
AcDbBlockBegin
  2
-014-3_
 70
     0
 10
0.0
 20
0.0
 30
0.0
  3
-014-3_
  1

  0
LINE
  5
110
330
10E
100
AcDbEntity
  8
_1-f_補助線
  6
Continuous
 62
     9
100
AcDbLine
 10
2.356469849397796
 20
0.4305993546536512
 30
0.0
 11
7.140579193204928
 21
0.4305993546536512
 31
0.0
  0
LINE
  5
111
330
10E
100
AcDbEntity
  8
_1-f_補助線
  6
Continuous
 62
     9
100
AcDbLine
 10
4.788910374695376
 20
2.43059935919922
 30
0.0
 11
4.788910374695376
 21
-2.01400375819756
 31
0.0
  0
CIRCLE
  5
112
330
10E
100
AcDbEntity
  8
_1-f_補助線
  6
Continuous
 62
     4
100
AcDbCircle
 10
4.788910374695376
 20
0.4305993546536512
 30
0.0
 40
2.000000004545554
  0
TEXT
  5
113
330
10E
100
AcDbEntity
  8
_1-f_補助線
 62
     3
100
AcDbText
 10
3.698654729308032
 20
-1.06949650071698
 30
0.0
 40
3.0
  1
3'
 41
0.8333333333333332
100
AcDbText
  0
ENDBLK
  5
114
330
10E
100
AcDbEntity
  8
0
100
AcDbBlockEnd
  0
ENDSEC
  0
SECTION
  2
ENTITIES
  0
LINE
  5
115
330
6F
100
AcDbEntity
  8
_2-2_舗装
  6
Continuous
 62
    18
100
AcDbLine
 10
51.0763655641282
 20
251.5102943667425
 30
0.0
 11
48.67636556412822
 21
251.5102943667425
 31
0.0
  0
LINE
  5
116
330
6F
100
AcDbEntity
  8
_2-2_舗装
  6
Continuous
 62
    18
100
AcDbLine
 10
48.67636556412822
 20
251.5102943667425
 30
0.0
 11
48.67636556412822
 21
254.5102943667425
 31
0.0
  0
LINE
  5
117
330
6F
100
AcDbEntity
  8
_2-2_舗装
  6
Continuous
 62
    18
100
AcDbLine
 10
51.0763655641282
 20
254.3345405316669
 30
0.0
 11
51.0763655641282
 21
251.5102943667425
 31
0.0
  0
LINE
  5
118
330
6F
100
AcDbEntity
  8
_2-2_舗装
  6
Continuous
 62
    18
100
AcDbLine
 10
48.67636556412822
 20
254.5102943667425
 30
0.0
 11
51.0763655641282
 21
254.5102943667425
 31
0.0
  0
LINE
  5
119
330
6F
100
AcDbEntity
  8
_2-2_舗装
  6
Continuous
 62
    18
100
AcDbLine
 10
51.0763655641282
 20
254.5102943667425
 30
0.0
 11
51.0763655641282
 21
254.3345405316669
 31
0.0
  0
LINE
  5
11A
330
6F
100
AcDbEntity
  8
ADD_LINE
  6
DOT
 62
    18
100
AcDbLine
 10
0.0
 20
291.6969696969697
 30
0.0
 11
297.0
 21
291.6969696969697
 31
0.0
  0
LINE
  5
11B
330
6F
100
AcDbEntity
  8
ADD_LINE
  6
DOT
 62
     9
100
AcDbLine
 10
297.0
 20
286.3939393939394
 30
0.0
 11
0.0
 21
286.3939393939394
 31
0.0
  0
LINE
  5
11C
330
6F
100
AcDbEntity
  8
_F-0_F-0___
  6
Continuous
 62
     9
100
AcDbLine
 10
297.0
 20
297.0
 30
0.0
 11
0.0
 21
297.0
 31
0.0
  0
LINE
  5
11D
330
6F
100
AcDbEntity
  8
_F-0_F-0___
  6
Continuous
 62
     9
100
AcDbLine
 10
0.0
 20
297.0
 30
0.0
 11
297.0
 21
297.0
 31
0.0
  0
LINE
  5
11E
330
6F
100
AcDbEntity
  8
_F-F_補助線
  6
Continuous
 62
     9
100
AcDbLine
 10
297.0
 20
297.0
 30
0.0
 11
0.0
 21
297.0
 31
0.0
  0
LINE
  5
11F
330
6F
100
AcDbEntity
  8
ADD_LINE
  6
DOT
 62
     9
100
AcDbLine
 10
0.0
 20
297.0
 30
0.0
 11
297.0
 21
297.0
 31
0.0
  0
LINE
  5
120
330
6F
100
AcDbEntity
  8
_F-0_F-0___
  6
Continuous
 62
     9
100
AcDbLine
 10
297.0
 20
297.0
 30
0.0
 11
0.0
 21
297.0
 31
0.0
  0
LINE
  5
121
330
6F
100
AcDbEntity
  8
_F-0_F-0___
  6
Continuous
 62
     9
100
AcDbLine
 10
0.0
 20
297.0
 30
0.0
 11
297.0
 21
297.0
 31
0.0
  0
LINE
  5
122
330
6F
100
AcDbEntity
  8
_F-F_補助線
  6
Continuous
 62
     9
100
AcDbLine
 10
297.0
 20
297.0
 30
0.0
 11
0.0
 21
297.0
 31
0.0
  0
LINE
  5
123
330
6F
100
AcDbEntity
  8
ADD_LINE
  6
DOT
 62
     9
100
AcDbLine
 10
0.0
 20
297.0
 30
0.0
 11
297.0
 21
297.0
 31
0.0
  0
LINE
  5
124
330
6F
100
AcDbEntity
  8
ADD_LINE
  6
DOT
 62
     9
100
AcDbLine
 10
297.0
 20
97.60606060606063
 30
0.0
 11
0.0
 21
97.60606060606063
 31
0.0
  0
LINE
  5
125
330
6F
100
AcDbEntity
  8
ADD_LINE
  6
DOT
 62
    18
100
AcDbLine
 10
297.0
 20
92.30303030303035
 30
0.0
 11
0.0
 21
92.30303030303035
 31
0.0
  0
LINE
  5
126
330
6F
100
AcDbEntity
  8
_F-0_F-0___
  6
Continuous
 62
     9
100
AcDbLine
 10
297.0
 20
87.0
 30
0.0
 11
0.0
 21
87.0
 31
0.0
  0
LINE
  5
127
330
6F
100
AcDbEntity
  8
_F-F_補助線
  6
Continuous
 62
     9
100
AcDbLine
 10
297.0
 20
87.0
 30
0.0
 11
0.0
 21
87.0
 31
0.0
  0
LINE
  5
128
330
6F
100
AcDbEntity
  8
_F-0_F-0___
  6
Continuous
 62
     9
100
AcDbLine
 10
0.0
 20
87.00000000000004
 30
0.0
 11
0.0
 21
297.0
 31
0.0
  0
LINE
  5
129
330
6F
100
AcDbEntity
  8
_F-0_F-0___
  6
Continuous
 62
     9
100
AcDbLine
 10
297.0
 20
87.0
 30
0.0
 11
297.0
 21
297.0
 31
0.0
  0
LINE
  5
12A
330
6F
100
AcDbEntity
  8
ADD_LINE
  6
DOT
 62
    18
100
AcDbLine
 10
5.303571428571416
 20
87.00000000000004
 30
0.0
 11
5.303571428571416
 21
297.0
 31
0.0
  0
LINE
  5
12B
330
6F
100
AcDbEntity
  8
ADD_LINE
  6
DOT
 62
     9
100
AcDbLine
 10
148.5
 20
87.0
 30
0.0
 11
148.5
 21
297.0
 31
0.0
  0
LINE
  5
12C
330
6F
100
AcDbEntity
  8
ADD_LINE
  6
DOT
 62
     9
100
AcDbLine
 10
286.3928571428571
 20
297.0
 30
0.0
 11
286.3928571428571
 21
87.0
 31
0.0
  0
LINE
  5
12D
330
6F
100
AcDbEntity
  8
ADD_LINE
  6
DOT
 62
    18
100
AcDbLine
 10
291.6964285714287
 20
297.0
 30
0.0
 11
291.6964285714287
 21
87.0
 31
0.0
  0
LINE
  5
12E
330
6F
100
AcDbEntity
  8
_F-0_F-0___
  6
Continuous
 62
     9
100
AcDbLine
 10
297.0
 20
297.0
 30
0.0
 11
297.0
 21
87.0
 31
0.0
  0
LINE
  5
12F
330
6F
100
AcDbEntity
  8
_F-F_補助線
  6
Continuous
 62
     9
100
AcDbLine
 10
297.0
 20
87.0
 30
0.0
 11
297.0
 21
297.0
 31
0.0
  0
LINE
  5
130
330
6F
100
AcDbEntity
  8
_F-F_補助線
  6
Continuous
 62
     9
100
AcDbLine
 10
0.0
 20
87.00000000000004
 30
0.0
 11
0.0
 21
297.0
 31
0.0
  0
LINE
  5
131
330
6F
100
AcDbEntity
  8
ADD_LINE
  6
DOT
 62
     9
100
AcDbLine
 10
10.60714285714286
 20
87.00000000000004
 30
0.0
 11
10.60714285714286
 21
297.0
 31
0.0
  0
LINE
  5
132
330
6F
100
AcDbEntity
  8
_2-2_舗装
  6
Continuous
 62
    18
100
AcDbLine
 10
29.57636556412848
 20
209.8102943643073
 30
0.0
 11
29.57636556412848
 21
212.2102943643073
 31
0.0
  0
LINE
  5
133
330
6F
100
AcDbEntity
  8
_2-2_舗装
  6
Continuous
 62
    18
100
AcDbLine
 10
31.97636556412857
 20
209.8102943643073
 30
0.0
 11
29.57636556412848
 21
209.8102943643073
 31
0.0
  0
LINE
  5
134
330
6F
100
AcDbEntity
  8
_2-2_舗装
  6
Continuous
 62
    18
100
AcDbLine
 10
29.57636556412808
 20
156.8102943643073
 30
0.0
 11
31.97636556412806
 21
156.8102943643073
 31
0.0
  0
LINE
  5
135
330
6F
100
AcDbEntity
  8
_2-2_舗装
  6
Continuous
 62
    18
100
AcDbLine
 10
31.97636556412806
 20
156.8102943643073
 30
0.0
 11
31.97636556412806
 21
154.4102943643073
 31
0.0
  0
LINE
  5
136
330
6F
100
AcDbEntity
  8
_2-2_舗装
  6
Continuous
 62
    18
100
AcDbLine
 10
31.97636556412806
 20
154.4102943643073
 30
0.0
 11
29.57636556412808
 21
154.4102943643073
 31
0.0
  0
LINE
  5
137
330
6F
100
AcDbEntity
  8
_2-2_舗装
  6
Continuous
 62
    18
100
AcDbLine
 10
29.57636556412808
 20
154.4102943643073
 30
0.0
 11
29.57636556412808
 21
156.8102943643073
 31
0.0
  0
LINE
  5
138
330
6F
100
AcDbEntity
  8
_2-2_舗装
  6
Continuous
 62
    18
100
AcDbLine
 10
28.97636556412806
 20
154.4102943643073
 30
0.0
 11
32.57636556412808
 21
154.4102943643073
 31
0.0
  0
LINE
  5
139
330
6F
100
AcDbEntity
  8
_2-2_舗装
  6
Continuous
 62
    18
100
AcDbLine
 10
32.57636556412808
 20
154.4102943643073
 30
0.0
 11
32.57636556412808
 21
150.8102943643073
 31
0.0
  0
LINE
  5
13A
330
6F
100
AcDbEntity
  8
_2-2_舗装
  6
Continuous
 62
    18
100
AcDbLine
 10
32.57636556412808
 20
150.8102943643073
 30
0.0
 11
28.97636556412806
 21
150.8102943643073
 31
0.0
  0
LINE
  5
13B
330
6F
100
AcDbEntity
  8
_2-2_舗装
  6
Continuous
 62
    18
100
AcDbLine
 10
28.97636556412806
 20
150.8102943643073
 30
0.0
 11
28.97636556412806
 21
154.4102943643073
 31
0.0
  0
LINE
  5
13C
330
6F
100
AcDbEntity
  8
ADD_LINE
  6
DOT
 62
     9
100
AcDbLine
 10
48.67636556412799
 20
163.7102943643073
 30
0.0
 11
8.485456473219018
 21
163.7102943643073
 31
0.0
  0
LINE
  5
13D
330
6F
100
AcDbEntity
  8
_2-2_舗装
  6
Continuous
 62
    18
100
AcDbLine
 10
48.52636556412818
 20
237.2102943643073
 30
0.0
 11
51.22636556412823
 21
237.2102943643073
 31
0.0
  0
LINE
  5
13E
330
6F
100
AcDbEntity
  8
_2-2_舗装
  6
Continuous
 62
    18
100
AcDbLine
 10
105.8263655641281
 20
207.2102943643073
 30
0.0
 11
108.5263655641282
 21
207.2102943643073
 31
0.0
  0
LINE
  5
13F
330
6F
100
AcDbEntity
  8
_2-2_舗装
  6
Continuous
 62
    18
100
AcDbLine
 10
108.5263655641282
 20
207.2102943643073
 30
0.0
 11
108.5263655641282
 21
201.2102943643073
 31
0.0
  0
LINE
  5
140
330
6F
100
AcDbEntity
  8
_2-2_舗装
  6
Continuous
 62
    18
100
AcDbLine
 10
108.5263655641282
 20
201.2102943643073
 30
0.0
 11
105.8263655641281
 21
201.2102943643073
 31
0.0
  0
LINE
  5
141
330
6F
100
AcDbEntity
  8
_2-2_舗装
  6
Continuous
 62
    18
100
AcDbLine
 10
105.8263655641281
 20
201.2102943643073
 30
0.0
 11
105.8263655641281
 21
207.2102943643073
 31
0.0
  0
LINE
  5
142
330
6F
100
AcDbEntity
  8
_2-2_舗装
  6
Continuous
 62
    18
100
AcDbLine
 10
182.2263655641282
 20
207.2102943643073
 30
0.0
 11
184.9263655641282
 21
207.2102943643073
 31
0.0
  0
LINE
  5
143
330
6F
100
AcDbEntity
  8
_2-2_舗装
  6
Continuous
 62
    18
100
AcDbLine
 10
184.9263655641282
 20
207.2102943643073
 30
0.0
 11
184.9263655641282
 21
201.2102943643073
 31
0.0
  0
LINE
  5
144
330
6F
100
AcDbEntity
  8
_2-2_舗装
  6
Continuous
 62
    18
100
AcDbLine
 10
239.6763655641283
 20
254.5102943667425
 30
0.0
 11
242.0763655641283
 21
254.5102943667425
 31
0.0
  0
LINE
  5
145
330
6F
100
AcDbEntity
  8
_2-2_舗装
  6
Continuous
 62
    18
100
AcDbLine
 10
242.0763655641283
 20
254.5102943667425
 30
0.0
 11
242.0763655641283
 21
251.5102943667425
 31
0.0
  0
LINE
  5
146
330
6F
100
AcDbEntity
  8
_2-2_舗装
  6
Continuous
 62
    18
100
AcDbLine
 10
242.0763655641283
 20
251.5102943667425
 30
0.0
 11
239.6763655641283
 21
251.5102943667425
 31
0.0
  0
LINE
  5
147
330
6F
100
AcDbEntity
  8
_2-2_舗装
  6
Continuous
 62
    18
100
AcDbLine
 10
239.6763655641283
 20
251.5102943667425
 30
0.0
 11
239.6763655641283
 21
254.5102943667425
 31
0.0
  0
LINE
  5
148
330
6F
100
AcDbEntity
  8
_2-2_舗装
  6
Continuous
 62
    18
100
AcDbLine
 10
242.2263655641283
 20
237.2102943643073
 30
0.0
 11
239.5263655641282
 21
237.2102943643073
 31
0.0
  0
LINE
  5
149
330
6F
100
AcDbEntity
  8
_2-2_舗装
  6
Continuous
 62
    18
100
AcDbLine
 10
239.5263655641282
 20
237.2102943643073
 30
0.0
 11
239.5263655641282
 21
234.5102943643074
 31
0.0
  0
LINE
  5
14A
330
6F
100
AcDbEntity
  8
_2-2_舗装
  6
Continuous
 62
    18
100
AcDbLine
 10
239.5263655641282
 20
234.5102943643074
 30
0.0
 11
242.2263655641283
 21
234.5102943643074
 31
0.0
  0
LINE
  5
14B
330
6F
100
AcDbEntity
  8
_2-2_舗装
  6
Continuous
 62
    18
100
AcDbLine
 10
242.2263655641283
 20
234.5102943643074
 30
0.0
 11
242.2263655641283
 21
237.2102943643073
 31
0.0
  0
LINE
  5
14C
330
6F
100
AcDbEntity
  8
ADD_LINE
  6
DOT
 62
     9
100
AcDbLine
 10
82.67051569324578
 20
241.2102943643073
 30
0.0
 11
74.19910424349045
 21
241.2102943643073
 31
0.0
  0
LINE
  5
14D
330
6F
100
AcDbEntity
  8
_2-2_舗装
  6
Continuous
 62
    18
100
AcDbLine
 10
76.72636556412823
 20
236.2228435776686
 30
0.0
 11
76.72636556412823
 21
239.3977451509461
 31
0.0
  0
LINE
  5
14E
330
6F
100
AcDbEntity
  8
_2-2_舗装
  6
Continuous
 62
    18
100
AcDbLine
 10
80.32636556412823
 20
239.3977451509461
 30
0.0
 11
80.32636556412823
 21
236.2228435776686
 31
0.0
  0
ARC
  5
14F
330
6F
100
AcDbEntity
  8
_2-2_舗装
  6
Continuous
 62
    18
100
AcDbCircle
 10
78.52636556412824
 20
237.8102943643074
 30
0.0
 40
2.399999999999999
100
AcDbArc
 50
41.40962210927165
 51
138.5903778907283
  0
ARC
  5
150
330
6F
100
AcDbEntity
  8
_2-2_舗装
  6
Continuous
 62
    18
100
AcDbCircle
 10
78.52636556412824
 20
237.8102943643074
 30
0.0
 40
2.399999999999999
100
AcDbArc
 50
221.4096221092716
 51
318.5903778907284
  0
LINE
  5
151
330
6F
100
AcDbEntity
  8
ADD_LINE
  6
DOT
 62
     9
100
AcDbLine
 10
111.3205156932457
 20
241.2102943643073
 30
0.0
 11
102.8491042434904
 21
241.2102943643073
 31
0.0
  0
LINE
  5
152
330
6F
100
AcDbEntity
  8
_2-2_舗装
  6
Continuous
 62
    18
100
AcDbLine
 10
105.3763655641281
 20
239.3977451509461
 30
0.0
 11
105.3763655641281
 21
236.2228435776686
 31
0.0
  0
LINE
  5
153
330
6F
100
AcDbEntity
  8
_2-2_舗装
  6
Continuous
 62
    18
100
AcDbLine
 10
108.9763655641281
 20
236.2228435776686
 30
0.0
 11
108.9763655641281
 21
239.3977451509461
 31
0.0
  0
ARC
  5
154
330
6F
100
AcDbEntity
  8
_2-2_舗装
  6
Continuous
 62
    18
100
AcDbCircle
 10
107.1763655641281
 20
237.8102943643074
 30
0.0
 40
2.399999999999999
100
AcDbArc
 50
41.40962210927165
 51
138.5903778907283
  0
ARC
  5
155
330
6F
100
AcDbEntity
  8
_2-2_舗装
  6
Continuous
 62
    18
100
AcDbCircle
 10
107.1763655641281
 20
237.8102943643074
 30
0.0
 40
2.399999999999999
100
AcDbArc
 50
221.4096221092716
 51
318.5903778907284
  0
LINE
  5
156
330
6F
100
AcDbEntity
  8
ADD_LINE
  6
DOT
 62
     9
100
AcDbLine
 10
149.5205156932457
 20
241.2102943643073
 30
0.0
 11
141.0491042434904
 21
241.2102943643073
 31
0.0
  0
LINE
  5
157
330
6F
100
AcDbEntity
  8
_2-2_舗装
  6
Continuous
 62
    18
100
AcDbLine
 10
143.5763655641282
 20
239.3977451509461
 30
0.0
 11
143.5763655641282
 21
236.2228435776686
 31
0.0
  0
LINE
  5
158
330
6F
100
AcDbEntity
  8
_2-2_舗装
  6
Continuous
 62
    18
100
AcDbLine
 10
147.1763655641282
 20
236.2228435776686
 30
0.0
 11
147.1763655641282
 21
239.3977451509461
 31
0.0
  0
ARC
  5
159
330
6F
100
AcDbEntity
  8
_2-2_舗装
  6
Continuous
 62
    18
100
AcDbCircle
 10
145.3763655641282
 20
237.8102943643074
 30
0.0
 40
2.399999999999999
100
AcDbArc
 50
41.40962210927165
 51
138.5903778907283
  0
ARC
  5
15A
330
6F
100
AcDbEntity
  8
_2-2_舗装
  6
Continuous
 62
    18
100
AcDbCircle
 10
145.3763655641282
 20
237.8102943643074
 30
0.0
 40
2.399999999999999
100
AcDbArc
 50
221.4096221092716
 51
318.5903778907284
  0
LINE
  5
15B
330
6F
100
AcDbEntity
  8
ADD_LINE
  6
DOT
 62
     9
100
AcDbLine
 10
208.0822154350106
 20
241.2102943643073
 30
0.0
 11
216.553626884766
 21
241.2102943643073
 31
0.0
  0
LINE
  5
15C
330
6F
100
AcDbEntity
  8
_2-2_舗装
  6
Continuous
 62
    18
100
AcDbLine
 10
214.0263655641282
 20
236.2228435776686
 30
0.0
 11
214.0263655641282
 21
239.3977451509461
 31
0.0
  0
LINE
  5
15D
330
6F
100
AcDbEntity
  8
_2-2_舗装
  6
Continuous
 62
    18
100
AcDbLine
 10
210.4263655641282
 20
239.3977451509461
 30
0.0
 11
210.4263655641282
 21
236.2228435776686
 31
0.0
  0
ARC
  5
15E
330
6F
100
AcDbEntity
  8
_2-2_舗装
  6
Continuous
 62
    18
100
AcDbCircle
 10
212.2263655641281
 20
237.8102943643074
 30
0.0
 40
2.399999999999999
100
AcDbArc
 50
41.40962210927165
 51
138.5903778907283
  0
ARC
  5
15F
330
6F
100
AcDbEntity
  8
_2-2_舗装
  6
Continuous
 62
    18
100
AcDbCircle
 10
212.2263655641281
 20
237.8102943643074
 30
0.0
 40
2.399999999999999
100
AcDbArc
 50
221.4096221092716
 51
318.5903778907284
  0
LINE
  5
160
330
6F
100
AcDbEntity
  8
ADD_LINE
  6
DOT
 62
     9
100
AcDbLine
 10
179.4322154350107
 20
241.2102943643073
 30
0.0
 11
187.903626884766
 21
241.2102943643073
 31
0.0
  0
LINE
  5
161
330
6F
100
AcDbEntity
  8
_2-2_舗装
  6
Continuous
 62
    18
100
AcDbLine
 10
185.3763655641282
 20
236.2228435776686
 30
0.0
 11
185.3763655641282
 21
239.3977451509461
 31
0.0
  0
LINE
  5
162
330
6F
100
AcDbEntity
  8
_2-2_舗装
  6
Continuous
 62
    18
100
AcDbLine
 10
181.7763655641283
 20
239.3977451509461
 30
0.0
 11
181.7763655641283
 21
236.2228435776686
 31
0.0
  0
ARC
  5
163
330
6F
100
AcDbEntity
  8
_2-2_舗装
  6
Continuous
 62
    18
100
AcDbCircle
 10
183.5763655641282
 20
237.8102943643074
 30
0.0
 40
2.399999999999999
100
AcDbArc
 50
41.40962210927165
 51
138.5903778907283
  0
ARC
  5
164
330
6F
100
AcDbEntity
  8
_2-2_舗装
  6
Continuous
 62
    18
100
AcDbCircle
 10
183.5763655641282
 20
237.8102943643074
 30
0.0
 40
2.399999999999999
100
AcDbArc
 50
221.4096221092716
 51
318.5903778907284
  0
LINE
  5
165
330
6F
100
AcDbEntity
  8
ADD_LINE
  6
DOT
 62
     9
100
AcDbLine
 10
141.2322154350106
 20
241.2102943643073
 30
0.0
 11
149.703626884766
 21
241.2102943643073
 31
0.0
  0
LINE
  5
166
330
6F
100
AcDbEntity
  8
_2-2_舗装
  6
Continuous
 62
    18
100
AcDbLine
 10
238.4763655641283
 20
212.0102943643073
 30
0.0
 11
238.4763655641283
 21
208.4102943643073
 31
0.0
  0
LINE
  5
167
330
6F
100
AcDbEntity
  8
_2-2_舗装
  6
Continuous
 62
    18
100
AcDbLine
 10
243.2763655641283
 20
208.4102943643073
 30
0.0
 11
243.2763655641283
 21
212.0102943643073
 31
0.0
  0
ARC
  5
168
330
6F
100
AcDbEntity
  8
_2-2_舗装
  6
Continuous
 62
    18
100
AcDbCircle
 10
240.8763655641283
 20
210.2102943643073
 30
0.0
 40
3.0
100
AcDbArc
 50
36.8698976458443
 51
143.1301023541557
  0
ARC
  5
169
330
6F
100
AcDbEntity
  8
_2-2_舗装
  6
Continuous
 62
    18
100
AcDbCircle
 10
240.8763655641283
 20
210.2102943643073
 30
0.0
 40
3.0
100
AcDbArc
 50
216.8698976458443
 51
323.1301023541557
  0
LINE
  5
16A
330
6F
100
AcDbEntity
  8
_2-2_舗装
  6
Continuous
 62
    18
100
AcDbLine
 10
258.7763655641278
 20
212.2102943643073
 30
0.0
 11
261.1763655641279
 21
212.2102943643073
 31
0.0
  0
LINE
  5
16B
330
6F
100
AcDbEntity
  8
_2-2_舗装
  6
Continuous
 62
    18
100
AcDbLine
 10
261.1763655641279
 20
212.2102943643073
 30
0.0
 11
261.1763655641279
 21
209.8102943643073
 31
0.0
  0
LINE
  5
16C
330
6F
100
AcDbEntity
  8
_2-2_舗装
  6
Continuous
 62
    18
100
AcDbLine
 10
261.1763655641279
 20
209.8102943643073
 30
0.0
 11
258.7763655641278
 21
209.8102943643073
 31
0.0
  0
LINE
  5
16D
330
6F
100
AcDbEntity
  8
_2-2_舗装
  6
Continuous
 62
    18
100
AcDbLine
 10
258.7763655641278
 20
209.8102943643073
 30
0.0
 11
258.7763655641278
 21
212.2102943643073
 31
0.0
  0
LINE
  5
16E
330
6F
100
AcDbEntity
  8
_2-2_舗装
  6
Continuous
 62
    18
100
AcDbLine
 10
243.2763655641282
 20
218.4652943650757
 30
0.0
 11
243.2763655641282
 21
220.2652943650758
 31
0.0
  0
LINE
  5
16F
330
6F
100
AcDbEntity
  8
_2-2_舗装
  6
Continuous
 62
    18
100
AcDbLine
 10
242.0763655641281
 20
218.4652943650757
 30
0.0
 11
243.2763655641282
 21
218.4652943650757
 31
0.0
  0
LINE
  5
170
330
6F
100
AcDbEntity
  8
_2-2_舗装
  6
Continuous
 62
    18
100
AcDbLine
 10
261.1763655641284
 20
156.8102943643073
 30
0.0
 11
258.7763655641284
 21
156.8102943643073
 31
0.0
  0
LINE
  5
171
330
6F
100
AcDbEntity
  8
_2-2_舗装
  6
Continuous
 62
    18
100
AcDbLine
 10
258.7763655641284
 20
156.8102943643073
 30
0.0
 11
258.7763655641284
 21
154.4102943643073
 31
0.0
  0
LINE
  5
172
330
6F
100
AcDbEntity
  8
_2-2_舗装
  6
Continuous
 62
    18
100
AcDbLine
 10
258.7763655641284
 20
154.4102943643073
 30
0.0
 11
261.1763655641284
 21
154.4102943643073
 31
0.0
  0
LINE
  5
173
330
6F
100
AcDbEntity
  8
_2-2_舗装
  6
Continuous
 62
    18
100
AcDbLine
 10
261.1763655641284
 20
154.4102943643073
 30
0.0
 11
261.1763655641284
 21
156.8102943643073
 31
0.0
  0
LINE
  5
174
330
6F
100
AcDbEntity
  8
_2-2_舗装
  6
Continuous
 62
    18
100
AcDbLine
 10
261.7763655641283
 20
154.4102943643073
 30
0.0
 11
258.1763655641284
 21
154.4102943643073
 31
0.0
  0
LINE
  5
175
330
6F
100
AcDbEntity
  8
_2-2_舗装
  6
Continuous
 62
    18
100
AcDbLine
 10
261.1763655641281
 20
195.2102943643073
 30
0.0
 11
258.7763655641281
 21
195.2102943643073
 31
0.0
  0
LINE
  5
176
330
6F
100
AcDbEntity
  8
_2-2_舗装
  6
Continuous
 62
    18
100
AcDbLine
 10
258.7763655641281
 20
195.2102943643073
 30
0.0
 11
258.7763655641281
 21
198.2102943643073
 31
0.0
  0
LINE
  5
177
330
6F
100
AcDbEntity
  8
_2-2_舗装
  6
Continuous
 62
    18
100
AcDbLine
 10
261.1763655641281
 20
198.2102943643073
 30
0.0
 11
261.1763655641281
 21
195.2102943643073
 31
0.0
  0
LINE
  5
178
330
6F
100
AcDbEntity
  8
_2-2_舗装
  6
Continuous
 62
    18
100
AcDbLine
 10
258.7763655641281
 20
198.2102943643073
 30
0.0
 11
261.1763655641281
 21
198.2102943643073
 31
0.0
  0
LINE
  5
179
330
6F
100
AcDbEntity
  8
_2-2_舗装
  6
Continuous
 62
    18
100
AcDbLine
 10
108.3763655641282
 20
163.7102943643073
 30
0.0
 11
105.9763655641281
 21
163.7102943643073
 31
0.0
  0
LINE
  5
17A
330
6F
100
AcDbEntity
  8
_2-2_舗装
  6
Continuous
 62
    18
100
AcDbLine
 10
105.9763655641281
 20
163.7102943643073
 30
0.0
 11
105.9763655641281
 21
160.7102943643073
 31
0.0
  0
LINE
  5
17B
330
6F
100
AcDbEntity
  8
_2-2_舗装
  6
Continuous
 62
    18
100
AcDbLine
 10
105.9763655641281
 20
160.7102943643073
 30
0.0
 11
108.3763655641282
 21
160.7102943643073
 31
0.0
  0
LINE
  5
17C
330
6F
100
AcDbEntity
  8
_2-2_舗装
  6
Continuous
 62
    18
100
AcDbLine
 10
108.3763655641282
 20
160.7102943643073
 30
0.0
 11
108.3763655641282
 21
163.7102943643073
 31
0.0
  0
LINE
  5
17D
330
6F
100
AcDbEntity
  8
_2-2_舗装
  6
Continuous
 62
    18
100
AcDbLine
 10
51.22636556412823
 20
233.6102943643073
 30
0.0
 11
48.52636556412818
 21
233.6102943643073
 31
0.0
  0
LINE
  5
17E
330
6F
100
AcDbEntity
  8
_2-2_舗装
  6
Continuous
 62
    18
100
AcDbLine
 10
48.52636556412818
 20
233.6102943643073
 30
0.0
 11
48.52636556412818
 21
237.2102943643073
 31
0.0
  0
LINE
  5
17F
330
6F
100
AcDbEntity
  8
_2-2_舗装
  6
Continuous
 62
    18
100
AcDbLine
 10
51.22636556412823
 20
237.2102943643073
 30
0.0
 11
51.22636556412823
 21
233.6102943643073
 31
0.0
  0
LINE
  5
180
330
6F
100
AcDbEntity
  8
_2-2_舗装
  6
Continuous
 62
    18
100
AcDbLine
 10
105.9763655641281
 20
254.5102943667425
 30
0.0
 11
108.3763655641281
 21
254.5102943667425
 31
0.0
  0
LINE
  5
181
330
6F
100
AcDbEntity
  8
_2-2_舗装
  6
Continuous
 62
    18
100
AcDbLine
 10
108.3763655641281
 20
254.5102943667425
 30
0.0
 11
108.3763655641281
 21
251.5102943667425
 31
0.0
  0
LINE
  5
182
330
6F
100
AcDbEntity
  8
_2-2_舗装
  6
Continuous
 62
    18
100
AcDbLine
 10
108.3763655641281
 20
251.5102943667425
 30
0.0
 11
105.9763655641281
 21
251.5102943667425
 31
0.0
  0
LINE
  5
183
330
6F
100
AcDbEntity
  8
_2-2_舗装
  6
Continuous
 62
    18
100
AcDbLine
 10
105.9763655641281
 20
251.5102943667425
 30
0.0
 11
105.9763655641281
 21
254.5102943667425
 31
0.0
  0
LINE
  5
184
330
6F
100
AcDbEntity
  8
_2-2_舗装
  6
Continuous
 62
    18
100
AcDbLine
 10
182.3763655641282
 20
254.5102943667425
 30
0.0
 11
184.7763655641282
 21
254.5102943667425
 31
0.0
  0
LINE
  5
185
330
6F
100
AcDbEntity
  8
_2-2_舗装
  6
Continuous
 62
    18
100
AcDbLine
 10
184.7763655641282
 20
254.5102943667425
 30
0.0
 11
184.7763655641282
 21
251.5102943667425
 31
0.0
  0
LINE
  5
186
330
6F
100
AcDbEntity
  8
_2-2_舗装
  6
Continuous
 62
    18
100
AcDbLine
 10
184.7763655641282
 20
251.5102943667425
 30
0.0
 11
182.3763655641282
 21
251.5102943667425
 31
0.0
  0
LINE
  5
187
330
6F
100
AcDbEntity
  8
_2-2_舗装
  6
Continuous
 62
    18
100
AcDbLine
 10
182.3763655641282
 20
251.5102943667425
 30
0.0
 11
182.3763655641282
 21
254.5102943667425
 31
0.0
  0
LINE
  5
188
330
6F
100
AcDbEntity
  8
_2-2_舗装
  6
Continuous
 62
    18
100
AcDbLine
 10
48.67636556412822
 20
160.7102943643073
 30
0.0
 11
51.0763655641282
 21
160.7102943643073
 31
0.0
  0
LINE
  5
189
330
6F
100
AcDbEntity
  8
_2-2_舗装
  6
Continuous
 62
    18
100
AcDbLine
 10
48.67636556412822
 20
160.7102943643073
 30
0.0
 11
48.67636556412822
 21
163.7102943643073
 31
0.0
  0
LINE
  5
18A
330
6F
100
AcDbEntity
  8
_2-2_舗装
  6
Continuous
 62
    18
100
AcDbLine
 10
51.0763655641282
 20
160.7102943643073
 30
0.0
 11
51.0763655641282
 21
163.7102943643073
 31
0.0
  0
LINE
  5
18B
330
6F
100
AcDbEntity
  8
_2-2_舗装
  6
Continuous
 62
    18
100
AcDbLine
 10
51.0763655641282
 20
163.7102943643073
 30
0.0
 11
48.67636556412822
 21
163.7102943643073
 31
0.0
  0
LINE
  5
18C
330
6F
100
AcDbEntity
  8
_2-2_舗装
  6
Continuous
 62
    18
100
AcDbLine
 10
182.3763655641282
 20
165.2102943643073
 30
0.0
 11
184.7763655641282
 21
165.2102943643073
 31
0.0
  0
LINE
  5
18D
330
6F
100
AcDbEntity
  8
_2-2_舗装
  6
Continuous
 62
    18
100
AcDbLine
 10
184.7763655641282
 20
165.2102943643073
 30
0.0
 11
184.7763655641282
 21
160.4102943643072
 31
0.0
  0
LINE
  5
18E
330
6F
100
AcDbEntity
  8
_2-2_舗装
  6
Continuous
 62
    18
100
AcDbLine
 10
184.7763655641282
 20
160.4102943643072
 30
0.0
 11
182.3763655641282
 21
160.4102943643072
 31
0.0
  0
LINE
  5
18F
330
6F
100
AcDbEntity
  8
_2-2_舗装
  6
Continuous
 62
    18
100
AcDbLine
 10
182.3763655641282
 20
160.4102943643072
 30
0.0
 11
182.3763655641282
 21
165.2102943643073
 31
0.0
  0
LINE
  5
190
330
6F
100
AcDbEntity
  8
_2-2_舗装
  6
Continuous
 62
    18
100
AcDbLine
 10
240.4263655641283
 20
256.3102943667425
 30
0.0
 11
241.3263655641283
 21
256.3102943667425
 31
0.0
  0
LINE
  5
191
330
6F
100
AcDbEntity
  8
_2-2_舗装
  6
Continuous
 62
    18
100
AcDbLine
 10
241.3263655641283
 20
256.3102943667425
 30
0.0
 11
241.3263655641283
 21
257.5102943667425
 31
0.0
  0
LINE
  5
192
330
6F
100
AcDbEntity
  8
_2-2_舗装
  6
Continuous
 62
    18
100
AcDbLine
 10
241.3263655641283
 20
257.5102943667425
 30
0.0
 11
240.4263655641283
 21
257.5102943667425
 31
0.0
  0
LINE
  5
193
330
6F
100
AcDbEntity
  8
_2-2_舗装
  6
Continuous
 62
    18
100
AcDbLine
 10
240.4263655641283
 20
257.5102943667425
 30
0.0
 11
240.4263655641283
 21
256.3102943667425
 31
0.0
  0
LINE
  5
194
330
6F
100
AcDbEntity
  8
_2-2_舗装
  6
Continuous
 62
    18
100
AcDbLine
 10
249.9763655641283
 20
256.3102943667425
 30
0.0
 11
250.8763655641283
 21
256.3102943667425
 31
0.0
  0
LINE
  5
195
330
6F
100
AcDbEntity
  8
_2-2_舗装
  6
Continuous
 62
    18
100
AcDbLine
 10
250.8763655641283
 20
256.3102943667425
 30
0.0
 11
250.8763655641283
 21
257.5102943667425
 31
0.0
  0
LINE
  5
196
330
6F
100
AcDbEntity
  8
_2-2_舗装
  6
Continuous
 62
    18
100
AcDbLine
 10
250.8763655641283
 20
257.5102943667425
 30
0.0
 11
249.9763655641283
 21
257.5102943667425
 31
0.0
  0
LINE
  5
197
330
6F
100
AcDbEntity
  8
_2-2_舗装
  6
Continuous
 62
    18
100
AcDbLine
 10
249.9763655641283
 20
257.5102943667425
 30
0.0
 11
249.9763655641283
 21
256.3102943667425
 31
0.0
  0
LINE
  5
198
330
6F
100
AcDbEntity
  8
_2-2_舗装
  6
Continuous
 62
    18
100
AcDbLine
 10
211.7763655641282
 20
256.3102943667425
 30
0.0
 11
212.6763655641282
 21
256.3102943667425
 31
0.0
  0
LINE
  5
199
330
6F
100
AcDbEntity
  8
_2-2_舗装
  6
Continuous
 62
    18
100
AcDbLine
 10
212.6763655641282
 20
256.3102943667425
 30
0.0
 11
212.6763655641282
 21
257.5102943667425
 31
0.0
  0
LINE
  5
19A
330
6F
100
AcDbEntity
  8
_2-2_舗装
  6
Continuous
 62
    18
100
AcDbLine
 10
212.6763655641282
 20
257.5102943667425
 30
0.0
 11
211.7763655641282
 21
257.5102943667425
 31
0.0
  0
LINE
  5
19B
330
6F
100
AcDbEntity
  8
_2-2_舗装
  6
Continuous
 62
    18
100
AcDbLine
 10
211.7763655641282
 20
257.5102943667425
 30
0.0
 11
211.7763655641282
 21
256.3102943667425
 31
0.0
  0
LINE
  5
19C
330
6F
100
AcDbEntity
  8
_2-2_舗装
  6
Continuous
 62
    18
100
AcDbLine
 10
221.3263655641282
 20
256.3102943667425
 30
0.0
 11
222.2263655641282
 21
256.3102943667425
 31
0.0
  0
LINE
  5
19D
330
6F
100
AcDbEntity
  8
_2-2_舗装
  6
Continuous
 62
    18
100
AcDbLine
 10
222.2263655641282
 20
256.3102943667425
 30
0.0
 11
222.2263655641282
 21
257.5102943667425
 31
0.0
  0
LINE
  5
19E
330
6F
100
AcDbEntity
  8
_2-2_舗装
  6
Continuous
 62
    18
100
AcDbLine
 10
222.2263655641282
 20
257.5102943667425
 30
0.0
 11
221.3263655641282
 21
257.5102943667425
 31
0.0
  0
LINE
  5
19F
330
6F
100
AcDbEntity
  8
_2-2_舗装
  6
Continuous
 62
    18
100
AcDbLine
 10
221.3263655641282
 20
257.5102943667425
 30
0.0
 11
221.3263655641282
 21
256.3102943667425
 31
0.0
  0
LINE
  5
1A0
330
6F
100
AcDbEntity
  8
_2-2_舗装
  6
Continuous
 62
    18
100
AcDbLine
 10
202.2263655641281
 20
256.3102943667425
 30
0.0
 11
203.1263655641281
 21
256.3102943667425
 31
0.0
  0
LINE
  5
1A1
330
6F
100
AcDbEntity
  8
_2-2_舗装
  6
Continuous
 62
    18
100
AcDbLine
 10
203.1263655641281
 20
256.3102943667425
 30
0.0
 11
203.1263655641281
 21
257.5102943667425
 31
0.0
  0
LINE
  5
1A2
330
6F
100
AcDbEntity
  8
_2-2_舗装
  6
Continuous
 62
    18
100
AcDbLine
 10
203.1263655641281
 20
257.5102943667425
 30
0.0
 11
202.2263655641281
 21
257.5102943667425
 31
0.0
  0
LINE
  5
1A3
330
6F
100
AcDbEntity
  8
_2-2_舗装
  6
Continuous
 62
    18
100
AcDbLine
 10
202.2263655641281
 20
257.5102943667425
 30
0.0
 11
202.2263655641281
 21
256.3102943667425
 31
0.0
  0
LINE
  5
1A4
330
6F
100
AcDbEntity
  8
_2-2_舗装
  6
Continuous
 62
    18
100
AcDbLine
 10
230.8763655641282
 20
256.3102943667425
 30
0.0
 11
231.7763655641281
 21
256.3102943667425
 31
0.0
  0
LINE
  5
1A5
330
6F
100
AcDbEntity
  8
_2-2_舗装
  6
Continuous
 62
    18
100
AcDbLine
 10
231.7763655641281
 20
256.3102943667425
 30
0.0
 11
231.7763655641281
 21
257.5102943667425
 31
0.0
  0
LINE
  5
1A6
330
6F
100
AcDbEntity
  8
_2-2_舗装
  6
Continuous
 62
    18
100
AcDbLine
 10
231.7763655641281
 20
257.5102943667425
 30
0.0
 11
230.8763655641282
 21
257.5102943667425
 31
0.0
  0
LINE
  5
1A7
330
6F
100
AcDbEntity
  8
_2-2_舗装
  6
Continuous
 62
    18
100
AcDbLine
 10
230.8763655641282
 20
257.5102943667425
 30
0.0
 11
230.8763655641282
 21
256.3102943667425
 31
0.0
  0
LINE
  5
1A8
330
6F
100
AcDbEntity
  8
_2-2_舗装
  6
Continuous
 62
    18
100
AcDbLine
 10
192.6763655641281
 20
256.3102943667425
 30
0.0
 11
193.5763655641281
 21
256.3102943667425
 31
0.0
  0
LINE
  5
1A9
330
6F
100
AcDbEntity
  8
_2-2_舗装
  6
Continuous
 62
    18
100
AcDbLine
 10
193.5763655641281
 20
256.3102943667425
 30
0.0
 11
193.5763655641281
 21
257.5102943667425
 31
0.0
  0
LINE
  5
1AA
330
6F
100
AcDbEntity
  8
_2-2_舗装
  6
Continuous
 62
    18
100
AcDbLine
 10
193.5763655641281
 20
257.5102943667425
 30
0.0
 11
192.6763655641281
 21
257.5102943667425
 31
0.0
  0
LINE
  5
1AB
330
6F
100
AcDbEntity
  8
_2-2_舗装
  6
Continuous
 62
    18
100
AcDbLine
 10
192.6763655641281
 20
257.5102943667425
 30
0.0
 11
192.6763655641281
 21
256.3102943667425
 31
0.0
  0
LINE
  5
1AC
330
6F
100
AcDbEntity
  8
_2-2_舗装
  6
Continuous
 62
    18
100
AcDbLine
 10
183.1263655641281
 20
256.3102943667425
 30
0.0
 11
184.0263655641282
 21
256.3102943667425
 31
0.0
  0
LINE
  5
1AD
330
6F
100
AcDbEntity
  8
_2-2_舗装
  6
Continuous
 62
    18
100
AcDbLine
 10
184.0263655641281
 20
256.3102943667425
 30
0.0
 11
184.0263655641281
 21
257.5102943667425
 31
0.0
  0
LINE
  5
1AE
330
6F
100
AcDbEntity
  8
_2-2_舗装
  6
Continuous
 62
    18
100
AcDbLine
 10
184.0263655641282
 20
257.5102943667425
 30
0.0
 11
183.1263655641281
 21
257.5102943667425
 31
0.0
  0
LINE
  5
1AF
330
6F
100
AcDbEntity
  8
_2-2_舗装
  6
Continuous
 62
    18
100
AcDbLine
 10
183.1263655641281
 20
257.5102943667425
 30
0.0
 11
183.1263655641281
 21
256.3102943667425
 31
0.0
  0
LINE
  5
1B0
330
6F
100
AcDbEntity
  8
_2-2_舗装
  6
Continuous
 62
    18
100
AcDbLine
 10
154.4763655641282
 20
256.3102943667425
 30
0.0
 11
155.3763655641281
 21
256.3102943667425
 31
0.0
  0
LINE
  5
1B1
330
6F
100
AcDbEntity
  8
_2-2_舗装
  6
Continuous
 62
    18
100
AcDbLine
 10
155.3763655641281
 20
256.3102943667425
 30
0.0
 11
155.3763655641281
 21
257.5102943667425
 31
0.0
  0
LINE
  5
1B2
330
6F
100
AcDbEntity
  8
_2-2_舗装
  6
Continuous
 62
    18
100
AcDbLine
 10
155.3763655641281
 20
257.5102943667425
 30
0.0
 11
154.4763655641282
 21
257.5102943667425
 31
0.0
  0
LINE
  5
1B3
330
6F
100
AcDbEntity
  8
_2-2_舗装
  6
Continuous
 62
    18
100
AcDbLine
 10
154.4763655641282
 20
257.5102943667425
 30
0.0
 11
154.4763655641282
 21
256.3102943667425
 31
0.0
  0
LINE
  5
1B4
330
6F
100
AcDbEntity
  8
_2-2_舗装
  6
Continuous
 62
    18
100
AcDbLine
 10
164.0263655641282
 20
256.3102943667425
 30
0.0
 11
164.9263655641282
 21
256.3102943667425
 31
0.0
  0
LINE
  5
1B5
330
6F
100
AcDbEntity
  8
_2-2_舗装
  6
Continuous
 62
    18
100
AcDbLine
 10
164.9263655641282
 20
256.3102943667425
 30
0.0
 11
164.9263655641282
 21
257.5102943667425
 31
0.0
  0
LINE
  5
1B6
330
6F
100
AcDbEntity
  8
_2-2_舗装
  6
Continuous
 62
    18
100
AcDbLine
 10
164.9263655641282
 20
257.5102943667425
 30
0.0
 11
164.0263655641282
 21
257.5102943667425
 31
0.0
  0
LINE
  5
1B7
330
6F
100
AcDbEntity
  8
_2-2_舗装
  6
Continuous
 62
    18
100
AcDbLine
 10
164.0263655641282
 20
257.5102943667425
 30
0.0
 11
164.0263655641282
 21
256.3102943667425
 31
0.0
  0
LINE
  5
1B8
330
6F
100
AcDbEntity
  8
_2-2_舗装
  6
Continuous
 62
    18
100
AcDbLine
 10
144.9263655641281
 20
256.3102943667425
 30
0.0
 11
145.8263655641281
 21
256.3102943667425
 31
0.0
  0
LINE
  5
1B9
330
6F
100
AcDbEntity
  8
_2-2_舗装
  6
Continuous
 62
    18
100
AcDbLine
 10
145.8263655641281
 20
256.3102943667425
 30
0.0
 11
145.8263655641281
 21
257.5102943667425
 31
0.0
  0
LINE
  5
1BA
330
6F
100
AcDbEntity
  8
_2-2_舗装
  6
Continuous
 62
    18
100
AcDbLine
 10
145.8263655641281
 20
257.5102943667425
 30
0.0
 11
144.9263655641281
 21
257.5102943667425
 31
0.0
  0
LINE
  5
1BB
330
6F
100
AcDbEntity
  8
_2-2_舗装
  6
Continuous
 62
    18
100
AcDbLine
 10
144.9263655641281
 20
257.5102943667425
 30
0.0
 11
144.9263655641281
 21
256.3102943667425
 31
0.0
  0
LINE
  5
1BC
330
6F
100
AcDbEntity
  8
_2-2_舗装
  6
Continuous
 62
    18
100
AcDbLine
 10
173.5763655641282
 20
256.3102943667425
 30
0.0
 11
174.4763655641282
 21
256.3102943667425
 31
0.0
  0
LINE
  5
1BD
330
6F
100
AcDbEntity
  8
_2-2_舗装
  6
Continuous
 62
    18
100
AcDbLine
 10
174.4763655641282
 20
256.3102943667425
 30
0.0
 11
174.4763655641282
 21
257.5102943667425
 31
0.0
  0
LINE
  5
1BE
330
6F
100
AcDbEntity
  8
_2-2_舗装
  6
Continuous
 62
    18
100
AcDbLine
 10
174.4763655641282
 20
257.5102943667425
 30
0.0
 11
173.5763655641282
 21
257.5102943667425
 31
0.0
  0
LINE
  5
1BF
330
6F
100
AcDbEntity
  8
_2-2_舗装
  6
Continuous
 62
    18
100
AcDbLine
 10
173.5763655641282
 20
257.5102943667425
 30
0.0
 11
173.5763655641282
 21
256.3102943667425
 31
0.0
  0
LINE
  5
1C0
330
6F
100
AcDbEntity
  8
_2-2_舗装
  6
Continuous
 62
    18
100
AcDbLine
 10
135.3763655641281
 20
256.3102943667425
 30
0.0
 11
136.2763655641281
 21
256.3102943667425
 31
0.0
  0
LINE
  5
1C1
330
6F
100
AcDbEntity
  8
_2-2_舗装
  6
Continuous
 62
    18
100
AcDbLine
 10
136.2763655641281
 20
256.3102943667425
 30
0.0
 11
136.2763655641281
 21
257.5102943667425
 31
0.0
  0
LINE
  5
1C2
330
6F
100
AcDbEntity
  8
_2-2_舗装
  6
Continuous
 62
    18
100
AcDbLine
 10
136.2763655641281
 20
257.5102943667425
 30
0.0
 11
135.3763655641281
 21
257.5102943667425
 31
0.0
  0
LINE
  5
1C3
330
6F
100
AcDbEntity
  8
_2-2_舗装
  6
Continuous
 62
    18
100
AcDbLine
 10
135.3763655641281
 20
257.5102943667425
 30
0.0
 11
135.3763655641281
 21
256.3102943667425
 31
0.0
  0
LINE
  5
1C4
330
6F
100
AcDbEntity
  8
_2-2_舗装
  6
Continuous
 62
    18
100
AcDbLine
 10
125.8263655641282
 20
256.3102943667425
 30
0.0
 11
126.7263655641283
 21
256.3102943667425
 31
0.0
  0
LINE
  5
1C5
330
6F
100
AcDbEntity
  8
_2-2_舗装
  6
Continuous
 62
    18
100
AcDbLine
 10
126.7263655641282
 20
256.3102943667425
 30
0.0
 11
126.7263655641282
 21
257.5102943667425
 31
0.0
  0
LINE
  5
1C6
330
6F
100
AcDbEntity
  8
_2-2_舗装
  6
Continuous
 62
    18
100
AcDbLine
 10
126.7263655641283
 20
257.5102943667425
 30
0.0
 11
125.8263655641282
 21
257.5102943667425
 31
0.0
  0
LINE
  5
1C7
330
6F
100
AcDbEntity
  8
_2-2_舗装
  6
Continuous
 62
    18
100
AcDbLine
 10
125.8263655641282
 20
257.5102943667425
 30
0.0
 11
125.8263655641282
 21
256.3102943667425
 31
0.0
  0
LINE
  5
1C8
330
6F
100
AcDbEntity
  8
_2-2_舗装
  6
Continuous
 62
    18
100
AcDbLine
 10
97.1763655641282
 20
256.3102943667425
 30
0.0
 11
98.07636556412823
 21
256.3102943667425
 31
0.0
  0
LINE
  5
1C9
330
6F
100
AcDbEntity
  8
_2-2_舗装
  6
Continuous
 62
    18
100
AcDbLine
 10
98.07636556412823
 20
256.3102943667425
 30
0.0
 11
98.07636556412823
 21
257.5102943667425
 31
0.0
  0
LINE
  5
1CA
330
6F
100
AcDbEntity
  8
_2-2_舗装
  6
Continuous
 62
    18
100
AcDbLine
 10
98.07636556412823
 20
257.5102943667425
 30
0.0
 11
97.1763655641282
 21
257.5102943667425
 31
0.0
  0
LINE
  5
1CB
330
6F
100
AcDbEntity
  8
_2-2_舗装
  6
Continuous
 62
    18
100
AcDbLine
 10
97.1763655641282
 20
257.5102943667425
 30
0.0
 11
97.1763655641282
 21
256.3102943667425
 31
0.0
  0
LINE
  5
1CC
330
6F
100
AcDbEntity
  8
_2-2_舗装
  6
Continuous
 62
    18
100
AcDbLine
 10
106.7263655641282
 20
256.3102943667425
 30
0.0
 11
107.6263655641282
 21
256.3102943667425
 31
0.0
  0
LINE
  5
1CD
330
6F
100
AcDbEntity
  8
_2-2_舗装
  6
Continuous
 62
    18
100
AcDbLine
 10
107.6263655641282
 20
256.3102943667425
 30
0.0
 11
107.6263655641282
 21
257.5102943667425
 31
0.0
  0
LINE
  5
1CE
330
6F
100
AcDbEntity
  8
_2-2_舗装
  6
Continuous
 62
    18
100
AcDbLine
 10
107.6263655641282
 20
257.5102943667425
 30
0.0
 11
106.7263655641282
 21
257.5102943667425
 31
0.0
  0
LINE
  5
1CF
330
6F
100
AcDbEntity
  8
_2-2_舗装
  6
Continuous
 62
    18
100
AcDbLine
 10
106.7263655641282
 20
257.5102943667425
 30
0.0
 11
106.7263655641282
 21
256.3102943667425
 31
0.0
  0
LINE
  5
1D0
330
6F
100
AcDbEntity
  8
_2-2_舗装
  6
Continuous
 62
    18
100
AcDbLine
 10
87.62636556412815
 20
256.3102943667425
 30
0.0
 11
88.52636556412816
 21
256.3102943667425
 31
0.0
  0
LINE
  5
1D1
330
6F
100
AcDbEntity
  8
_2-2_舗装
  6
Continuous
 62
    18
100
AcDbLine
 10
88.52636556412816
 20
256.3102943667425
 30
0.0
 11
88.52636556412816
 21
257.5102943667425
 31
0.0
  0
LINE
  5
1D2
330
6F
100
AcDbEntity
  8
_2-2_舗装
  6
Continuous
 62
    18
100
AcDbLine
 10
88.52636556412816
 20
257.5102943667425
 30
0.0
 11
87.62636556412815
 21
257.5102943667425
 31
0.0
  0
LINE
  5
1D3
330
6F
100
AcDbEntity
  8
_2-2_舗装
  6
Continuous
 62
    18
100
AcDbLine
 10
87.62636556412815
 20
257.5102943667425
 30
0.0
 11
87.62636556412815
 21
256.3102943667425
 31
0.0
  0
LINE
  5
1D4
330
6F
100
AcDbEntity
  8
_2-2_舗装
  6
Continuous
 62
    18
100
AcDbLine
 10
116.2763655641282
 20
256.3102943667425
 30
0.0
 11
117.1763655641282
 21
256.3102943667425
 31
0.0
  0
LINE
  5
1D5
330
6F
100
AcDbEntity
  8
_2-2_舗装
  6
Continuous
 62
    18
100
AcDbLine
 10
117.1763655641282
 20
256.3102943667425
 30
0.0
 11
117.1763655641282
 21
257.5102943667425
 31
0.0
  0
LINE
  5
1D6
330
6F
100
AcDbEntity
  8
_2-2_舗装
  6
Continuous
 62
    18
100
AcDbLine
 10
117.1763655641282
 20
257.5102943667425
 30
0.0
 11
116.2763655641282
 21
257.5102943667425
 31
0.0
  0
LINE
  5
1D7
330
6F
100
AcDbEntity
  8
_2-2_舗装
  6
Continuous
 62
    18
100
AcDbLine
 10
116.2763655641282
 20
257.5102943667425
 30
0.0
 11
116.2763655641282
 21
256.3102943667425
 31
0.0
  0
LINE
  5
1D8
330
6F
100
AcDbEntity
  8
_2-2_舗装
  6
Continuous
 62
    18
100
AcDbLine
 10
78.07636556412816
 20
256.3102943667425
 30
0.0
 11
78.97636556412819
 21
256.3102943667425
 31
0.0
  0
LINE
  5
1D9
330
6F
100
AcDbEntity
  8
_2-2_舗装
  6
Continuous
 62
    18
100
AcDbLine
 10
78.97636556412819
 20
256.3102943667425
 30
0.0
 11
78.97636556412819
 21
257.5102943667425
 31
0.0
  0
LINE
  5
1DA
330
6F
100
AcDbEntity
  8
_2-2_舗装
  6
Continuous
 62
    18
100
AcDbLine
 10
78.97636556412819
 20
257.5102943667425
 30
0.0
 11
78.07636556412816
 21
257.5102943667425
 31
0.0
  0
LINE
  5
1DB
330
6F
100
AcDbEntity
  8
_2-2_舗装
  6
Continuous
 62
    18
100
AcDbLine
 10
78.07636556412816
 20
257.5102943667425
 30
0.0
 11
78.07636556412816
 21
256.3102943667425
 31
0.0
  0
LINE
  5
1DC
330
6F
100
AcDbEntity
  8
_2-2_舗装
  6
Continuous
 62
    18
100
AcDbLine
 10
68.52636556412818
 20
256.3102943667425
 30
0.0
 11
69.42636556412821
 21
256.3102943667425
 31
0.0
  0
LINE
  5
1DD
330
6F
100
AcDbEntity
  8
_2-2_舗装
  6
Continuous
 62
    18
100
AcDbLine
 10
69.42636556412821
 20
256.3102943667425
 30
0.0
 11
69.42636556412821
 21
257.5102943667425
 31
0.0
  0
LINE
  5
1DE
330
6F
100
AcDbEntity
  8
_2-2_舗装
  6
Continuous
 62
    18
100
AcDbLine
 10
69.42636556412821
 20
257.5102943667425
 30
0.0
 11
68.52636556412818
 21
257.5102943667425
 31
0.0
  0
LINE
  5
1DF
330
6F
100
AcDbEntity
  8
_2-2_舗装
  6
Continuous
 62
    18
100
AcDbLine
 10
68.52636556412818
 20
257.5102943667425
 30
0.0
 11
68.52636556412818
 21
256.3102943667425
 31
0.0
  0
LINE
  5
1E0
330
6F
100
AcDbEntity
  8
_2-2_舗装
  6
Continuous
 62
    18
100
AcDbLine
 10
68.52636556412829
 20
256.3102943667425
 30
0.0
 11
69.42636556412828
 21
256.3102943667425
 31
0.0
  0
LINE
  5
1E1
330
6F
100
AcDbEntity
  8
_2-2_舗装
  6
Continuous
 62
    18
100
AcDbLine
 10
69.42636556412828
 20
256.3102943667425
 30
0.0
 11
69.42636556412828
 21
257.5102943667425
 31
0.0
  0
LINE
  5
1E2
330
6F
100
AcDbEntity
  8
_2-2_舗装
  6
Continuous
 62
    18
100
AcDbLine
 10
69.42636556412828
 20
257.5102943667425
 30
0.0
 11
68.52636556412829
 21
257.5102943667425
 31
0.0
  0
LINE
  5
1E3
330
6F
100
AcDbEntity
  8
_2-2_舗装
  6
Continuous
 62
    18
100
AcDbLine
 10
68.52636556412829
 20
257.5102943667425
 30
0.0
 11
68.52636556412829
 21
256.3102943667425
 31
0.0
  0
LINE
  5
1E4
330
6F
100
AcDbEntity
  8
_2-2_舗装
  6
Continuous
 62
    18
100
AcDbLine
 10
39.87636556412824
 20
256.3102943667425
 30
0.0
 11
40.77636556412824
 21
256.3102943667425
 31
0.0
  0
LINE
  5
1E5
330
6F
100
AcDbEntity
  8
_2-2_舗装
  6
Continuous
 62
    18
100
AcDbLine
 10
40.77636556412824
 20
256.3102943667425
 30
0.0
 11
40.77636556412824
 21
257.5102943667425
 31
0.0
  0
LINE
  5
1E6
330
6F
100
AcDbEntity
  8
_2-2_舗装
  6
Continuous
 62
    18
100
AcDbLine
 10
40.77636556412824
 20
257.5102943667425
 30
0.0
 11
39.87636556412824
 21
257.5102943667425
 31
0.0
  0
LINE
  5
1E7
330
6F
100
AcDbEntity
  8
_2-2_舗装
  6
Continuous
 62
    18
100
AcDbLine
 10
39.87636556412824
 20
257.5102943667425
 30
0.0
 11
39.87636556412824
 21
256.3102943667425
 31
0.0
  0
LINE
  5
1E8
330
6F
100
AcDbEntity
  8
_2-2_舗装
  6
Continuous
 62
    18
100
AcDbLine
 10
49.42636556412821
 20
256.3102943667425
 30
0.0
 11
50.32636556412825
 21
256.3102943667425
 31
0.0
  0
LINE
  5
1E9
330
6F
100
AcDbEntity
  8
_2-2_舗装
  6
Continuous
 62
    18
100
AcDbLine
 10
50.32636556412825
 20
256.3102943667425
 30
0.0
 11
50.32636556412825
 21
257.5102943667425
 31
0.0
  0
LINE
  5
1EA
330
6F
100
AcDbEntity
  8
_2-2_舗装
  6
Continuous
 62
    18
100
AcDbLine
 10
50.32636556412825
 20
257.5102943667425
 30
0.0
 11
49.42636556412821
 21
257.5102943667425
 31
0.0
  0
LINE
  5
1EB
330
6F
100
AcDbEntity
  8
_2-2_舗装
  6
Continuous
 62
    18
100
AcDbLine
 10
49.42636556412821
 20
257.5102943667425
 30
0.0
 11
49.42636556412821
 21
256.3102943667425
 31
0.0
  0
LINE
  5
1EC
330
6F
100
AcDbEntity
  8
_2-2_舗装
  6
Continuous
 62
    18
100
AcDbLine
 10
58.97636556412823
 20
256.3102943667425
 30
0.0
 11
59.87636556412825
 21
256.3102943667425
 31
0.0
  0
LINE
  5
1ED
330
6F
100
AcDbEntity
  8
_2-2_舗装
  6
Continuous
 62
    18
100
AcDbLine
 10
59.87636556412825
 20
256.3102943667425
 30
0.0
 11
59.87636556412825
 21
257.5102943667425
 31
0.0
  0
LINE
  5
1EE
330
6F
100
AcDbEntity
  8
_2-2_舗装
  6
Continuous
 62
    18
100
AcDbLine
 10
59.87636556412825
 20
257.5102943667425
 30
0.0
 11
58.97636556412823
 21
257.5102943667425
 31
0.0
  0
LINE
  5
1EF
330
6F
100
AcDbEntity
  8
_2-2_舗装
  6
Continuous
 62
    18
100
AcDbLine
 10
58.97636556412823
 20
257.5102943667425
 30
0.0
 11
58.97636556412823
 21
256.3102943667425
 31
0.0
  0
LINE
  5
1F0
330
6F
100
AcDbEntity
  8
_2-2_舗装
  6
Continuous
 62
    18
100
AcDbLine
 10
184.9263655641282
 20
201.2102943643073
 30
0.0
 11
182.2263655641282
 21
201.2102943643073
 31
0.0
  0
LINE
  5
1F1
330
6F
100
AcDbEntity
  8
_2-2_舗装
  6
Continuous
 62
    18
100
AcDbLine
 10
182.2263655641282
 20
201.2102943643073
 30
0.0
 11
182.2263655641282
 21
207.2102943643073
 31
0.0
  0
LINE
  5
1F2
330
6F
100
AcDbEntity
  8
_2-2_舗装
  6
Continuous
 62
    18
100
AcDbLine
 10
29.57636556412848
 20
212.2102943643073
 30
0.0
 11
31.97636556412857
 21
212.2102943643073
 31
0.0
  0
LINE
  5
1F3
330
6F
100
AcDbEntity
  8
_2-2_舗装
  6
Continuous
 62
    18
100
AcDbLine
 10
31.97636556412857
 20
212.2102943643073
 30
0.0
 11
31.97636556412857
 21
209.8102943643073
 31
0.0
  0
LINE
  5
1F4
330
6F
100
AcDbEntity
  8
ADD_LINE
  6
DOT
 62
     9
100
AcDbLine
 10
282.4296824001335
 20
240.2102943643073
 30
0.0
 11
8.485456473219045
 21
240.2102943643073
 31
0.0
  0
LINE
  5
1F5
330
6F
100
AcDbEntity
  8
ADD_LINE
  6
DOT
 62
     9
100
AcDbLine
 10
282.4296824001335
 20
235.4102943643074
 30
0.0
 11
8.485456473219045
 21
235.4102943643074
 31
0.0
  0
LINE
  5
1F6
330
6F
100
AcDbEntity
  8
ADD_LINE
  6
DOT
 62
     9
100
AcDbLine
 10
210.4263655641282
 20
243.6603151481154
 30
0.0
 11
210.4263655641282
 21
231.6331953331689
 31
0.0
  0
LINE
  5
1F7
330
6F
100
AcDbEntity
  8
ADD_LINE
  6
DOT
 62
     9
100
AcDbLine
 10
214.0263655641282
 20
243.6603151481154
 30
0.0
 11
214.0263655641282
 21
231.6331953331689
 31
0.0
  0
LINE
  5
1F8
330
6F
100
AcDbEntity
  8
ADD_LINE
  6
DOT
 62
     9
100
AcDbLine
 10
185.5712787162445
 20
233.8754587885513
 30
0.0
 11
201.2187372601978
 21
233.7922276260835
 31
0.0
  0
LINE
  5
1F9
330
6F
100
AcDbEntity
  8
_2-2_舗装
  6
Continuous
 62
    18
100
AcDbLine
 10
181.7763655641284
 20
150.8102943643073
 30
0.0
 11
185.3763655641284
 21
150.8102943643073
 31
0.0
  0
LINE
  5
1FA
330
6F
100
AcDbEntity
  8
_2-2_舗装
  6
Continuous
 62
    18
100
AcDbLine
 10
185.3763655641284
 20
150.8102943643073
 30
0.0
 11
185.3763655641284
 21
154.4102943643073
 31
0.0
  0
LINE
  5
1FB
330
6F
100
AcDbEntity
  8
_2-2_舗装
  6
Continuous
 62
    18
100
AcDbLine
 10
185.3763655641284
 20
154.4102943643073
 30
0.0
 11
181.7763655641284
 21
154.4102943643073
 31
0.0
  0
LINE
  5
1FC
330
6F
100
AcDbEntity
  8
_2-2_舗装
  6
Continuous
 62
    18
100
AcDbLine
 10
181.7763655641284
 20
154.4102943643073
 30
0.0
 11
181.7763655641284
 21
150.8102943643073
 31
0.0
  0
LINE
  5
1FD
330
6F
100
AcDbEntity
  8
_2-2_舗装
  6
Continuous
 62
    18
100
AcDbLine
 10
254.8763655641282
 20
256.3102943667425
 30
0.0
 11
253.9763655641282
 21
256.3102943667425
 31
0.0
  0
LINE
  5
1FE
330
6F
100
AcDbEntity
  8
_2-2_舗装
  6
Continuous
 62
    18
100
AcDbLine
 10
253.9763655641282
 20
256.3102943667425
 30
0.0
 11
253.9763655641282
 21
257.5102943667425
 31
0.0
  0
LINE
  5
1FF
330
6F
100
AcDbEntity
  8
_2-2_舗装
  6
Continuous
 62
    18
100
AcDbLine
 10
253.9763655641282
 20
257.5102943667425
 30
0.0
 11
254.8763655641282
 21
257.5102943667425
 31
0.0
  0
LINE
  5
200
330
6F
100
AcDbEntity
  8
_2-2_舗装
  6
Continuous
 62
    18
100
AcDbLine
 10
254.8763655641282
 20
257.5102943667425
 30
0.0
 11
254.8763655641282
 21
256.3102943667425
 31
0.0
  0
LINE
  5
201
330
6F
100
AcDbEntity
  8
_2-2_舗装
  6
Continuous
 62
    18
100
AcDbLine
 10
35.87636556412821
 20
256.3102943667425
 30
0.0
 11
36.77636556412821
 21
256.3102943667425
 31
0.0
  0
LINE
  5
202
330
6F
100
AcDbEntity
  8
_2-2_舗装
  6
Continuous
 62
    18
100
AcDbLine
 10
36.77636556412821
 20
256.3102943667425
 30
0.0
 11
36.77636556412821
 21
257.5102943667425
 31
0.0
  0
LINE
  5
203
330
6F
100
AcDbEntity
  8
_2-2_舗装
  6
Continuous
 62
    18
100
AcDbLine
 10
36.77636556412821
 20
257.5102943667425
 30
0.0
 11
35.87636556412821
 21
257.5102943667425
 31
0.0
  0
LINE
  5
204
330
6F
100
AcDbEntity
  8
_2-2_舗装
  6
Continuous
 62
    18
100
AcDbLine
 10
35.87636556412821
 20
257.5102943667425
 30
0.0
 11
35.87636556412821
 21
256.3102943667425
 31
0.0
  0
LINE
  5
205
330
6F
100
AcDbEntity
  8
_2-2_舗装
  6
Continuous
 62
    18
100
AcDbLine
 10
258.1763655641284
 20
154.4102943643073
 30
0.0
 11
258.1763655641284
 21
147.2102943643073
 31
0.0
  0
LINE
  5
206
330
6F
100
AcDbEntity
  8
_2-2_舗装
  6
Continuous
 62
    18
100
AcDbLine
 10
261.7763655641283
 20
154.4102943643073
 30
0.0
 11
261.7763655641283
 21
147.2102943643073
 31
0.0
  0
LINE
  5
207
330
6F
100
AcDbEntity
  8
_2-2_舗装
  6
Continuous
 62
    18
100
AcDbLine
 10
258.1763655641284
 20
150.8102943643073
 30
0.0
 11
261.7763655641283
 21
150.8102943643073
 31
0.0
  0
LINE
  5
208
330
6F
100
AcDbEntity
  8
_2-2_舗装
  6
Continuous
 62
    18
100
AcDbLine
 10
258.1763655641284
 20
147.2102943643073
 30
0.0
 11
261.7763655641283
 21
147.2102943643073
 31
0.0
  0
LINE
  5
209
330
6F
100
AcDbEntity
  8
_2-2_舗装
  6
Continuous
 62
    18
100
AcDbLine
 10
242.0763655641281
 20
218.4652943650757
 30
0.0
 11
242.0763655641281
 21
220.2652943650758
 31
0.0
  0
LINE
  5
20A
330
6F
100
AcDbEntity
  8
_2-2_舗装
  6
Continuous
 62
    18
100
AcDbLine
 10
243.2763655641282
 20
220.2652943650758
 30
0.0
 11
242.0763655641281
 21
220.2652943650758
 31
0.0
  0
LINE
  5
20B
330
6F
100
AcDbEntity
  8
ADD_LINE
  6
DOT
 62
     9
100
AcDbLine
 10
54.51888298225043
 20
219.2102943643073
 30
0.0
 11
50.92636556412822
 21
219.2102943643073
 31
0.0
  0
LINE
  5
20C
330
6F
100
AcDbEntity
  8
ADD_LINE
  6
DOT
 62
     9
100
AcDbLine
 10
52.65026085990186
 20
217.2102943643073
 30
0.0
 11
45.95417279743421
 21
217.2102943643073
 31
0.0
  0
LINE
  5
20D
330
6F
100
AcDbEntity
  8
ADD_LINE
  6
DOT
 62
     9
100
AcDbLine
 10
52.65026085990186
 20
213.2102943643073
 30
0.0
 11
45.95417279743421
 21
213.2102943643073
 31
0.0
  0
LINE
  5
20E
330
6F
100
AcDbEntity
  8
ADD_LINE
  6
DOT
 62
     9
100
AcDbLine
 10
51.92863909708038
 20
211.2102943643073
 30
0.0
 11
46.5011409753674
 21
211.2102943643073
 31
0.0
  0
LINE
  5
20F
330
6F
100
AcDbEntity
  8
_2-2_舗装
  6
Continuous
 62
    18
100
AcDbLine
 10
47.00136556412821
 20
212.2259808810088
 30
0.0
 11
47.00136556412821
 21
212.2259808810088
 31
0.0
  0
LINE
  5
210
330
6F
100
AcDbEntity
  8
_2-2_舗装
  6
Continuous
 62
    18
100
AcDbLine
 10
47.00136556412821
 20
212.2259808810088
 30
0.0
 11
47.304369544942
 21
211.8654186617976
 31
0.0
  0
LINE
  5
211
330
6F
100
AcDbEntity
  8
_2-2_舗装
  6
Continuous
 62
    18
100
AcDbLine
 10
47.304369544942
 20
211.8654186617976
 30
0.0
 11
47.65285899228222
 21
211.576104304243
 31
0.0
  0
LINE
  5
212
330
6F
100
AcDbEntity
  8
_2-2_舗装
  6
Continuous
 62
    18
100
AcDbLine
 10
47.65285899228222
 20
211.576104304243
 30
0.0
 11
48.03624523063561
 21
211.3668284786988
 31
0.0
  0
LINE
  5
213
330
6F
100
AcDbEntity
  8
_2-2_舗装
  6
Continuous
 62
    18
100
AcDbLine
 10
48.03624523063561
 20
211.3668284786988
 30
0.0
 11
48.44287926315261
 21
211.2439499252257
 31
0.0
  0
LINE
  5
214
330
6F
100
AcDbEntity
  8
_2-2_舗装
  6
Continuous
 62
    18
100
AcDbLine
 10
48.44287926315261
 20
211.2439499252257
 30
0.0
 11
48.86040572052191
 21
211.2112022464914
 31
0.0
  0
LINE
  5
215
330
6F
100
AcDbEntity
  8
_2-2_舗装
  6
Continuous
 62
    18
100
AcDbLine
 10
48.86040572052191
 20
211.2112022464914
 30
0.0
 11
49.27613827261496
 21
211.269580464143
 31
0.0
  0
LINE
  5
216
330
6F
100
AcDbEntity
  8
_2-2_舗装
  6
Continuous
 62
    18
100
AcDbLine
 10
49.27613827261496
 20
211.269580464143
 30
0.0
 11
49.67744509620724
 21
211.4173107855782
 31
0.0
  0
LINE
  5
217
330
6F
100
AcDbEntity
  8
_2-2_舗装
  6
Continuous
 62
    18
100
AcDbLine
 10
49.67744509620724
 20
211.4173107855782
 30
0.0
 11
50.05213268653491
 21
211.6499044997352
 31
0.0
  0
LINE
  5
218
330
6F
100
AcDbEntity
  8
_2-2_舗装
  6
Continuous
 62
    18
100
AcDbLine
 10
50.05213268653491
 20
211.6499044997352
 30
0.0
 11
50.38881635076697
 21
211.9602943643073
 31
0.0
  0
LINE
  5
219
330
6F
100
AcDbEntity
  8
_2-2_舗装
  6
Continuous
 62
    18
100
AcDbLine
 10
50.38881635076697
 20
211.9602943643073
 30
0.0
 11
50.60136556412818
 21
212.2259808810088
 31
0.0
  0
LINE
  5
21A
330
6F
100
AcDbEntity
  8
_2-2_舗装
  6
Continuous
 62
    18
100
AcDbLine
 10
50.60136556412818
 20
216.1946078476058
 30
0.0
 11
50.60136556412818
 21
216.1946078476058
 31
0.0
  0
LINE
  5
21B
330
6F
100
AcDbEntity
  8
_2-2_舗装
  6
Continuous
 62
    18
100
AcDbLine
 10
50.60136556412818
 20
216.1946078476058
 30
0.0
 11
50.29836158331438
 21
216.5551700668169
 31
0.0
  0
LINE
  5
21C
330
6F
100
AcDbEntity
  8
_2-2_舗装
  6
Continuous
 62
    18
100
AcDbLine
 10
50.29836158331438
 20
216.5551700668169
 30
0.0
 11
49.94987213597416
 21
216.8444844243716
 31
0.0
  0
LINE
  5
21D
330
6F
100
AcDbEntity
  8
_2-2_舗装
  6
Continuous
 62
    18
100
AcDbLine
 10
49.94987213597416
 20
216.8444844243716
 30
0.0
 11
49.56648589762077
 21
217.0537602499158
 31
0.0
  0
LINE
  5
21E
330
6F
100
AcDbEntity
  8
_2-2_舗装
  6
Continuous
 62
    18
100
AcDbLine
 10
49.56648589762077
 20
217.0537602499158
 30
0.0
 11
49.15985186510378
 21
217.1766388033889
 31
0.0
  0
LINE
  5
21F
330
6F
100
AcDbEntity
  8
_2-2_舗装
  6
Continuous
 62
    18
100
AcDbLine
 10
49.15985186510378
 20
217.1766388033889
 30
0.0
 11
48.74232540773446
 21
217.2093864821232
 31
0.0
  0
LINE
  5
220
330
6F
100
AcDbEntity
  8
_2-2_舗装
  6
Continuous
 62
    18
100
AcDbLine
 10
48.74232540773446
 20
217.2093864821232
 30
0.0
 11
48.3265928556414
 21
217.1510082644716
 31
0.0
  0
LINE
  5
221
330
6F
100
AcDbEntity
  8
_2-2_舗装
  6
Continuous
 62
    18
100
AcDbLine
 10
48.3265928556414
 20
217.1510082644716
 30
0.0
 11
47.92528603204914
 21
217.0032779430364
 31
0.0
  0
LINE
  5
222
330
6F
100
AcDbEntity
  8
_2-2_舗装
  6
Continuous
 62
    18
100
AcDbLine
 10
47.92528603204914
 20
217.0032779430364
 30
0.0
 11
47.55059844172145
 21
216.7706842288795
 31
0.0
  0
LINE
  5
223
330
6F
100
AcDbEntity
  8
_2-2_舗装
  6
Continuous
 62
    18
100
AcDbLine
 10
47.55059844172145
 20
216.7706842288795
 30
0.0
 11
47.2139147774894
 21
216.4602943643073
 31
0.0
  0
LINE
  5
224
330
6F
100
AcDbEntity
  8
_2-2_舗装
  6
Continuous
 62
    18
100
AcDbLine
 10
47.2139147774894
 20
216.4602943643073
 30
0.0
 11
47.00136556412821
 21
216.1946078476058
 31
0.0
  0
LINE
  5
225
330
6F
100
AcDbEntity
  8
_2-2_舗装
  6
Continuous
 62
    18
100
AcDbLine
 10
50.60136556412818
 20
212.2259808810088
 30
0.0
 11
50.60136556412818
 21
216.1946078476058
 31
0.0
  0
LINE
  5
226
330
6F
100
AcDbEntity
  8
_2-2_舗装
  6
Continuous
 62
    18
100
AcDbLine
 10
47.00136556412821
 20
216.1946078476058
 30
0.0
 11
47.00136556412821
 21
212.2259808810088
 31
0.0
  0
LINE
  5
227
330
6F
100
AcDbEntity
  8
_2-2_舗装
  6
Continuous
 62
    18
100
AcDbLine
 10
47.32636556412813
 20
218.4652943650757
 30
0.0
 11
47.32636556412813
 21
220.2652943650758
 31
0.0
  0
LINE
  5
228
330
6F
100
AcDbEntity
  8
_2-2_舗装
  6
Continuous
 62
    18
100
AcDbLine
 10
48.52636556412818
 20
218.4652943650757
 30
0.0
 11
47.32636556412813
 21
218.4652943650757
 31
0.0
  0
LINE
  5
229
330
6F
100
AcDbEntity
  8
_2-2_舗装
  6
Continuous
 62
    18
100
AcDbLine
 10
48.52636556412818
 20
220.2652943650758
 30
0.0
 11
48.52636556412818
 21
218.4652943650757
 31
0.0
  0
LINE
  5
22A
330
6F
100
AcDbEntity
  8
_2-2_舗装
  6
Continuous
 62
    18
100
AcDbLine
 10
47.32636556412813
 20
220.2652943650758
 30
0.0
 11
48.52636556412818
 21
220.2652943650758
 31
0.0
  0
LINE
  5
22B
330
6F
100
AcDbEntity
  8
ADD_LINE
  6
DOT
 62
     9
100
AcDbLine
 10
297.0
 20
182.8240101322886
 30
0.0
 11
0.0
 21
182.8240101322886
 31
0.0
  0
LINE
  5
22C
330
6F
100
AcDbEntity
  8
ADD_LINE
  6
DOT
 62
     9
100
AcDbLine
 10
297.0
 20
111.4304830843073
 30
0.0
 11
30.09384468413043
 21
111.4304830843073
 31
0.0
  0
LINE
  5
22D
330
6F
100
AcDbEntity
  8
ADD_LINE
  6
DOT
 62
     9
100
AcDbLine
 10
297.0
 20
131.4304830843073
 30
0.0
 11
30.09384468413043
 21
131.4304830843073
 31
0.0
  0
LINE
  5
22E
330
6F
100
AcDbEntity
  8
ADD_LINE
  6
DOT
 62
     9
100
AcDbLine
 10
297.0
 20
119.4304830843073
 30
0.0
 11
30.09384468413043
 21
119.4304830843073
 31
0.0
  0
LINE
  5
22F
330
6F
100
AcDbEntity
  8
ADD_LINE
  6
DOT
 62
     9
100
AcDbLine
 10
297.0
 20
127.4304830843073
 30
0.0
 11
30.09384468413043
 21
127.4304830843073
 31
0.0
  0
LINE
  5
230
330
6F
100
AcDbEntity
  8
ADD_LINE
  6
DOT
 62
     9
100
AcDbLine
 10
297.0
 20
121.4304830843073
 30
0.0
 11
30.09384468413043
 21
121.4304830843073
 31
0.0
  0
LINE
  5
231
330
6F
100
AcDbEntity
  8
ADD_LINE
  6
DOT
 62
     9
100
AcDbLine
 10
297.0
 20
123.4304830843073
 30
0.0
 11
30.09384468413043
 21
123.4304830843073
 31
0.0
  0
LINE
  5
232
330
6F
100
AcDbEntity
  8
ADD_LINE
  6
DOT
 62
     9
100
AcDbLine
 10
297.0
 20
127.4304830843073
 30
0.0
 11
30.09384468413043
 21
127.4304830843073
 31
0.0
  0
TEXT
  5
233
330
6F
100
AcDbEntity
  8
_2-E_文字
 62
     3
100
AcDbText
 10
75.99869009099376
 20
182.870615916192
 30
0.0
 40
2.5
  1
座敷・
 41
0.8
100
AcDbText
  0
TEXT
  5
234
330
6F
100
AcDbEntity
  8
_2-3_植栽
 62
     3
100
AcDbText
 10
136.9135867314143
 20
183.1333549684172
 30
0.0
 40
2.5
  1
和室8畳
 41
0.8
100
AcDbText
  0
TEXT
  5
235
330
6F
100
AcDbEntity
  8
_2-3_植栽
 62
     3
100
AcDbText
 10
212.2263655641281
 20
182.8240101322886
 30
0.0
 40
2.5
  1
倉庫南
 41
0.8
100
AcDbText
  0
TEXT
  5
236
330
6F
100
AcDbEntity
  8
_2-3_植栽
 62
     3
100
AcDbText
 10
38.12468375631033
 20
188.4187925276241
 30
0.0
 40
2.5
  1
仏間・
 41
0.8
100
AcDbText
  0
TEXT
  5
237
330
6F
100
AcDbEntity
  8
_2-E_文字
 62
     3
100
AcDbText
 10
287.049612552728
 20
165.6532823967691
 30
0.0
 40
2.5
  1
±0
 41
0.8
100
AcDbText
  0
TEXT
  5
238
330
6F
100
AcDbEntity
  8
_2-E_文字
 62
     3
100
AcDbText
 10
280.0806009158542
 20
165.3528939641453
 30
0.0
 40
2.5
  1
1FL
 41
0.8
100
AcDbText
  0
TEXT
  5
239
330
6F
100
AcDbEntity
  8
_2-E_文字
 62
     3
100
AcDbText
 10
277.5599093402474
 20
207.5421913527761
 30
0.0
 40
2.5
  1
差鴨居天
 41
0.8
100
AcDbText
  0
TEXT
  5
23A
330
6F
100
AcDbEntity
  8
_2-E_文字
 62
     3
100
AcDbText
 10
278.9337869958278
 20
212.4320140390843
 30
0.0
 40
2.5
  1
下屋桁
 41
0.8
100
AcDbText
  0
TEXT
  5
23B
330
6F
100
AcDbEntity
  8
_2-E_文字
 62
     3
100
AcDbText
 10
280.891595015767
 20
237.5912648773975
 30
0.0
 40
2.5
  1
軒桁
 41
0.8
100
AcDbText
  0
TEXT
  5
23C
330
6F
100
AcDbEntity
  8
_2-E_文字
 62
     3
100
AcDbText
 10
279.2792613583941
 20
266.0970083260096
 30
0.0
 40
2.5
  1
棟木天
 41
0.8
100
AcDbText
  0
TEXT
  5
23D
330
6F
100
AcDbEntity
  8
_2-E_文字
 62
     3
100
AcDbText
 10
279.3111396694197
 20
254.793696760603
 30
0.0
 40
2.5
  1
二重梁
 41
0.8
100
AcDbText
  0
TEXT
  5
23E
330
6F
100
AcDbEntity
  8
_2-E_文字
 62
     3
100
AcDbText
 10
241.6028923194673
 20
98.15131997443742
 30
0.0
 40
3.0
  1
桁方向断面図(か通り)
 41
0.8333333333333332
100
AcDbText
  0
TEXT
  5
23F
330
6F
100
AcDbEntity
  8
_2-E_文字
 62
     3
100
AcDbText
 10
273.1101184182572
 20
96.94724516305285
 30
0.0
 40
3.0
  1
S=1/50
 41
0.8333333333333332
100
AcDbText
  0
TEXT
  5
240
330
6F
100
AcDbEntity
  8
_2-E_文字
 62
     3
100
AcDbText
 10
16.00428576007942
 20
216.759401690436
 30
0.0
 40
2.5
  1
4.5
 41
0.8
100
AcDbText
  0
TEXT
  5
241
330
6F
100
AcDbEntity
  8
_2-E_文字
 62
     3
100
AcDbText
 10
27.18505489979481
 20
222.3827006739701
 30
0.0
 40
2.5
  1
10
 41
0.8
100
AcDbText
  0
TEXT
  5
242
330
6F
100
AcDbEntity
  8
_2-E_文字
 62
     3
100
AcDbText
 10
260.8176762284616
 20
222.3827006739701
 30
0.0
 40
2.5
  1
10
 41
0.8
100
AcDbText
  0
TEXT
  5
243
330
6F
100
AcDbEntity
  8
_2-E_文字
 62
     3
100
AcDbText
 10
270.4984453681769
 20
216.759401690436
 30
0.0
 40
2.5
  1
4.5
 41
0.8
100
AcDbText
  0
TEXT
  5
244
330
6F
100
AcDbEntity
  8
_2-E_文字
 62
     3
100
AcDbText
 10
90.55060368048126
 20
268.2334848257962
 30
0.0
 40
2.5
  1
保存構造材断面
 41
0.8
100
AcDbText
  0
TEXT
  5
245
330
6F
100
AcDbEntity
  8
_2-E_文字
 62
     3
100
AcDbText
 10
94.73080634230823
 20
261.9237449588875
 30
0.0
 40
2.5
  1
保存構造材見え掛かり
 41
0.8
100
AcDbText
  0
LINE
  5
246
330
6F
100
AcDbEntity
  8
_2-0_境界線
  6
CENTER2
 62
    83
100
AcDbLine
 10
282.4296824001335
 20
207.2102943643073
 30
0.0
 11
8.485456473219018
 21
207.2102943643073
 31
0.0
  0
LINE
  5
247
330
6F
100
AcDbEntity
  8
_2-0_境界線
  6
CENTER2
 62
    83
100
AcDbLine
 10
280.0118147681412
 20
165.2102943643073
 30
0.0
 11
8.485456473219018
 21
165.2102943643073
 31
0.0
  0
LINE
  5
248
330
6F
100
AcDbEntity
  8
_2-0_境界線
  6
CENTER2
 62
    83
100
AcDbLine
 10
280.0118147681412
 20
153.2102943643073
 30
0.0
 11
9.816273260564967
 21
153.2102943643073
 31
0.0
  0
LINE
  5
249
330
6F
100
AcDbEntity
  8
_2-0_境界線
  6
CENTER2
 62
    83
100
AcDbLine
 10
221.7763655641281
 20
287.4358105843072
 30
0.0
 11
221.7763655641281
 21
119.4304830843073
 31
0.0
  0
LINE
  5
24A
330
6F
100
AcDbEntity
  8
_2-0_境界線
  6
CENTER2
 62
    83
100
AcDbLine
 10
183.5763655641282
 20
287.4358105843072
 30
0.0
 11
183.5763655641282
 21
119.4304830843073
 31
0.0
  0
LINE
  5
24B
330
6F
100
AcDbEntity
  8
_2-0_境界線
  6
CENTER2
 62
    83
100
AcDbLine
 10
145.3763655641282
 20
287.4358105843072
 30
0.0
 11
145.3763655641282
 21
119.4304830843073
 31
0.0
  0
LINE
  5
24C
330
6F
100
AcDbEntity
  8
_2-0_境界線
  6
CENTER2
 62
    83
100
AcDbLine
 10
68.97636556412823
 20
287.4358105843072
 30
0.0
 11
68.97636556412823
 21
119.4304830843073
 31
0.0
  0
LINE
  5
24D
330
6F
100
AcDbEntity
  8
_2-0_境界線
  6
CENTER2
 62
    83
100
AcDbLine
 10
49.8763655641282
 20
287.4358105843072
 30
0.0
 11
49.8763655641282
 21
119.4304830843073
 31
0.0
  0
LINE
  5
24E
330
6F
100
AcDbEntity
  8
_2-0_境界線
  6
CENTER2
 62
    83
100
AcDbLine
 10
88.07636556412822
 20
287.4358105843072
 30
0.0
 11
88.07636556412822
 21
119.4304830843073
 31
0.0
  0
LINE
  5
24F
330
6F
100
AcDbEntity
  8
_2-0_境界線
  6
CENTER2
 62
    83
100
AcDbLine
 10
126.2763655641281
 20
287.4358105843072
 30
0.0
 11
126.2763655641281
 21
119.4304830843073
 31
0.0
  0
LINE
  5
250
330
6F
100
AcDbEntity
  8
_2-0_境界線
  6
CENTER2
 62
    83
100
AcDbLine
 10
164.4763655641282
 20
287.4358105843072
 30
0.0
 11
164.4763655641282
 21
119.4304830843073
 31
0.0
  0
LINE
  5
251
330
6F
100
AcDbEntity
  8
_2-0_境界線
  6
CENTER2
 62
    83
100
AcDbLine
 10
202.6763655641282
 20
287.4358105843072
 30
0.0
 11
202.6763655641282
 21
119.4304830843073
 31
0.0
  0
LINE
  5
252
330
6F
100
AcDbEntity
  8
_2-0_境界線
  6
CENTER2
 62
    83
100
AcDbLine
 10
259.9763655641283
 20
226.0721742179611
 30
0.0
 11
259.9763655641283
 21
119.4304830843073
 31
0.0
  0
LINE
  5
253
330
6F
100
AcDbEntity
  8
_2-0_境界線
  6
CENTER2
 62
    83
100
AcDbLine
 10
30.77636556412807
 20
226.0721742179611
 30
0.0
 11
30.77636556412807
 21
119.4304830843073
 31
0.0
  0
LINE
  5
254
330
6F
100
AcDbEntity
  8
_2-0_境界線
  6
CENTER2
 62
    83
100
AcDbLine
 10
282.4296824001335
 20
237.2102943643073
 30
0.0
 11
8.485456473219018
 21
237.2102943643073
 31
0.0
  0
LINE
  5
255
330
6F
100
AcDbEntity
  8
_2-0_境界線
  6
CENTER2
 62
    83
100
AcDbLine
 10
282.4296824001335
 20
265.8602943643073
 30
0.0
 11
8.485456473219018
 21
265.8602943643073
 31
0.0
  0
LINE
  5
256
330
6F
100
AcDbEntity
  8
_2-0_境界線
  6
CENTER2
 62
    83
100
AcDbLine
 10
212.2263655641281
 20
287.4358105843072
 30
0.0
 11
212.2263655641281
 21
119.4304830843073
 31
0.0
  0
LINE
  5
257
330
6F
100
AcDbEntity
  8
_2-0_境界線
  6
CENTER2
 62
    83
100
AcDbLine
 10
78.52636556412824
 20
287.4358105843072
 30
0.0
 11
78.52636556412824
 21
119.4304830843073
 31
0.0
  0
LINE
  5
258
330
6F
100
AcDbEntity
  8
_2-0_境界線
  6
CENTER2
 62
    83
100
AcDbLine
 10
107.1763655641281
 20
287.4358105843072
 30
0.0
 11
107.1763655641281
 21
119.4304830843073
 31
0.0
  0
LINE
  5
259
330
6F
100
AcDbEntity
  8
_2-0_境界線
  6
CENTER2
 62
    83
100
AcDbLine
 10
282.4296824001335
 20
212.2102943643073
 30
0.0
 11
8.485456473219018
 21
212.2102943643073
 31
0.0
  0
LINE
  5
25A
330
6F
100
AcDbEntity
  8
_2-0_境界線
  6
CENTER2
 62
    83
100
AcDbLine
 10
282.4296824001335
 20
254.5102943663073
 30
0.0
 11
8.485456473219045
 21
254.5102943663073
 31
0.0
  0
LINE
  5
25B
330
6F
100
AcDbEntity
  8
_2-0_境界線
  6
CENTER2
 62
    83
100
AcDbLine
 10
240.8763655641283
 20
287.4358105843072
 30
0.0
 11
240.8763655641283
 21
119.4304830843073
 31
0.0
  0
LINE
  5
25C
330
6F
100
AcDbEntity
  8
_2-0_境界線
  6
CENTER2
 62
    83
100
AcDbLine
 10
280.6969572969363
 20
202.8860280836538
 30
0.0
 11
234.8364002971001
 21
223.5232787355492
 31
0.0
  0
LINE
  5
25D
330
6F
100
AcDbEntity
  8
_2-0_境界線
  6
CENTER2
 62
    83
100
AcDbLine
 10
10.05577383131975
 20
202.8860280836538
 30
0.0
 11
55.91633083115596
 21
223.5232787355492
 31
0.0
  0
LINE
  5
25E
330
6F
100
AcDbEntity
  8
_2-C_ハッチ
  6
Continuous
 62
    83
100
AcDbLine
 10
51.0763655641282
 20
254.3345405316669
 30
0.0
 11
48.67636556412822
 21
251.5102943667425
 31
0.0
  0
LINE
  5
25F
330
6F
100
AcDbEntity
  8
_2-C_ハッチ
  6
Continuous
 62
    83
100
AcDbLine
 10
48.67636556412822
 20
254.5102943667425
 30
0.0
 11
51.0763655641282
 21
251.5102943667425
 31
0.0
  0
LINE
  5
260
330
6F
100
AcDbEntity
  8
_2-C_ハッチ
  6
Continuous
 62
    83
100
AcDbLine
 10
31.97636556412806
 20
156.8102943643073
 30
0.0
 11
29.57636556412808
 21
154.4102943643073
 31
0.0
  0
LINE
  5
261
330
6F
100
AcDbEntity
  8
_2-C_ハッチ
  6
Continuous
 62
    83
100
AcDbLine
 10
29.57636556412808
 20
156.8102943643073
 30
0.0
 11
31.97636556412806
 21
154.4102943643073
 31
0.0
  0
LINE
  5
262
330
6F
100
AcDbEntity
  8
_2-C_ハッチ
  6
Continuous
 62
    83
100
AcDbLine
 10
108.5263655641282
 20
207.2102943643073
 30
0.0
 11
105.8263655641281
 21
201.2102943643073
 31
0.0
  0
LINE
  5
263
330
6F
100
AcDbEntity
  8
_2-C_ハッチ
  6
Continuous
 62
    83
100
AcDbLine
 10
105.8263655641281
 20
207.2102943643073
 30
0.0
 11
108.5263655641282
 21
201.2102943643073
 31
0.0
  0
LINE
  5
264
330
6F
100
AcDbEntity
  8
_2-C_ハッチ
  6
Continuous
 62
    83
100
AcDbLine
 10
182.2263655641282
 20
207.2102943643073
 30
0.0
 11
184.9263655641282
 21
201.2102943643073
 31
0.0
  0
LINE
  5
265
330
6F
100
AcDbEntity
  8
_2-C_ハッチ
  6
Continuous
 62
    83
100
AcDbLine
 10
239.5263655641282
 20
237.2102943643073
 30
0.0
 11
242.2263655641283
 21
234.5102943643074
 31
0.0
  0
LINE
  5
266
330
6F
100
AcDbEntity
  8
_2-C_ハッチ
  6
Continuous
 62
    83
100
AcDbLine
 10
242.2263655641283
 20
237.2102943643073
 30
0.0
 11
239.5263655641282
 21
234.5102943643074
 31
0.0
  0
LINE
  5
267
330
6F
100
AcDbEntity
  8
_2-C_ハッチ
  6
Continuous
 62
    83
100
AcDbLine
 10
258.7763655641281
 20
212.2102943643072
 30
0.0
 11
261.1763655641281
 21
209.8102943643072
 31
0.0
  0
LINE
  5
268
330
6F
100
AcDbEntity
  8
_2-C_ハッチ
  6
Continuous
 62
    83
100
AcDbLine
 10
261.1763655641281
 20
212.2102943643072
 30
0.0
 11
258.7763655641281
 21
209.8102943643072
 31
0.0
  0
LINE
  5
269
330
6F
100
AcDbEntity
  8
_2-C_ハッチ
  6
Continuous
 62
    83
100
AcDbLine
 10
258.7763655641284
 20
156.8102943643073
 30
0.0
 11
261.1763655641284
 21
154.4102943643073
 31
0.0
  0
LINE
  5
26A
330
6F
100
AcDbEntity
  8
_2-C_ハッチ
  6
Continuous
 62
    83
100
AcDbLine
 10
261.1763655641284
 20
156.8102943643073
 30
0.0
 11
258.7763655641284
 21
154.4102943643073
 31
0.0
  0
LINE
  5
26B
330
6F
100
AcDbEntity
  8
_2-C_ハッチ
  6
Continuous
 62
    83
100
AcDbLine
 10
258.7763655641281
 20
198.2102943643073
 30
0.0
 11
261.1763655641281
 21
195.2102943643073
 31
0.0
  0
LINE
  5
26C
330
6F
100
AcDbEntity
  8
_2-C_ハッチ
  6
Continuous
 62
    83
100
AcDbLine
 10
261.1763655641281
 20
198.2102943643073
 30
0.0
 11
258.7763655641281
 21
195.2102943643073
 31
0.0
  0
LINE
  5
26D
330
6F
100
AcDbEntity
  8
_2-C_ハッチ
  6
Continuous
 62
    83
100
AcDbLine
 10
108.3763655641275
 20
163.7102943643073
 30
0.0
 11
105.9763655641276
 21
160.7102943643073
 31
0.0
  0
LINE
  5
26E
330
6F
100
AcDbEntity
  8
_2-C_ハッチ
  6
Continuous
 62
    83
100
AcDbLine
 10
105.9763655641276
 20
163.7102943643073
 30
0.0
 11
108.3763655641275
 21
160.7102943643073
 31
0.0
  0
LINE
  5
26F
330
6F
100
AcDbEntity
  8
_2-C_ハッチ
  6
Continuous
 62
    83
100
AcDbLine
 10
51.22636556412823
 20
237.2102943643073
 30
0.0
 11
48.52636556412818
 21
233.6102943643073
 31
0.0
  0
LINE
  5
270
330
6F
100
AcDbEntity
  8
_2-C_ハッチ
  6
Continuous
 62
    83
100
AcDbLine
 10
48.52636556412818
 20
237.2102943643073
 30
0.0
 11
51.22636556412823
 21
233.6102943643073
 31
0.0
  0
LINE
  5
271
330
6F
100
AcDbEntity
  8
_2-C_ハッチ
  6
Continuous
 62
    83
100
AcDbLine
 10
184.9263655641282
 20
207.2102943643073
 30
0.0
 11
182.2263655641282
 21
201.2102943643073
 31
0.0
  0
LINE
  5
272
330
6F
100
AcDbEntity
  8
_2-C_ハッチ
  6
Continuous
 62
    83
100
AcDbLine
 10
29.57636556412837
 20
212.2102943643072
 30
0.0
 11
31.97636556412823
 21
209.8102943643072
 31
0.0
  0
LINE
  5
273
330
6F
100
AcDbEntity
  8
_2-C_ハッチ
  6
Continuous
 62
    83
100
AcDbLine
 10
48.67636556412822
 20
160.7102943643073
 30
0.0
 11
51.0763655641282
 21
163.7102943643073
 31
0.0
  0
LINE
  5
274
330
6F
100
AcDbEntity
  8
_2-C_ハッチ
  6
Continuous
 62
    83
100
AcDbLine
 10
51.0763655641282
 20
160.7102943643073
 30
0.0
 11
48.61782897876236
 21
163.7834650960146
 31
0.0
  0
LINE
  5
275
330
6F
100
AcDbEntity
  8
_2-C_ハッチ
  6
Continuous
 62
    83
100
AcDbLine
 10
29.57636556412837
 20
209.8102943643072
 30
0.0
 11
31.97636556412843
 21
212.2102943643074
 31
0.0
  0
LINE
  5
276
330
6F
100
AcDbEntity
  8
_2-C_ハッチ
  6
Continuous
 62
    83
100
AcDbLine
 10
184.7763655641282
 20
165.2102943643073
 30
0.0
 11
182.3763655641282
 21
160.4102943643072
 31
0.0
  0
LINE
  5
277
330
6F
100
AcDbEntity
  8
_2-C_ハッチ
  6
Continuous
 62
    83
100
AcDbLine
 10
182.3763655641282
 20
165.2102943643073
 30
0.0
 11
184.7763655641282
 21
160.4102943643072
 31
0.0
  0
LINE
  5
278
330
6F
100
AcDbEntity
  8
_2-C_ハッチ
  6
Continuous
 62
    83
100
AcDbLine
 10
108.3763655641281
 20
254.3345405316669
 30
0.0
 11
105.9763655641281
 21
251.5102943667425
 31
0.0
  0
LINE
  5
279
330
6F
100
AcDbEntity
  8
_2-C_ハッチ
  6
Continuous
 62
    83
100
AcDbLine
 10
105.9763655641281
 20
254.5102943667425
 30
0.0
 11
108.3763655641281
 21
251.5102943667425
 31
0.0
  0
LINE
  5
27A
330
6F
100
AcDbEntity
  8
_2-C_ハッチ
  6
Continuous
 62
    83
100
AcDbLine
 10
184.7763655641282
 20
254.3345405316669
 30
0.0
 11
182.3763655641282
 21
251.5102943667425
 31
0.0
  0
LINE
  5
27B
330
6F
100
AcDbEntity
  8
_2-C_ハッチ
  6
Continuous
 62
    83
100
AcDbLine
 10
182.3763655641282
 20
254.5102943667425
 30
0.0
 11
184.7763655641282
 21
251.5102943667425
 31
0.0
  0
LINE
  5
27C
330
6F
100
AcDbEntity
  8
_2-C_ハッチ
  6
Continuous
 62
    83
100
AcDbLine
 10
242.0763655641283
 20
254.3345405316669
 30
0.0
 11
239.6763655641283
 21
251.5102943667425
 31
0.0
  0
LINE
  5
27D
330
6F
100
AcDbEntity
  8
_2-C_ハッチ
  6
Continuous
 62
    83
100
AcDbLine
 10
239.6763655641283
 20
254.5102943667425
 30
0.0
 11
242.0763655641283
 21
251.5102943667425
 31
0.0
  0
LINE
  5
27E
330
6F
100
AcDbEntity
  8
_2-C_ハッチ
  6
Continuous
 62
    83
100
AcDbLine
 10
213.6663655641283
 20
239.7302943643074
 30
0.0
 11
210.7863655641282
 21
235.8902943643073
 31
0.0
  0
LINE
  5
27F
330
6F
100
AcDbEntity
  8
_2-C_ハッチ
  6
Continuous
 62
    83
100
AcDbLine
 10
210.7863655641281
 20
239.7302943643074
 30
0.0
 11
213.6663655641282
 21
235.8902943643073
 31
0.0
  0
LINE
  5
280
330
6F
100
AcDbEntity
  8
_2-C_ハッチ
  6
Continuous
 62
    83
100
AcDbLine
 10
213.698239716164
 20
239.7302943643074
 30
0.0
 11
210.818239716164
 21
235.8902943643073
 31
0.0
  0
LINE
  5
281
330
6F
100
AcDbEntity
  8
_2-C_ハッチ
  6
Continuous
 62
    83
100
AcDbLine
 10
185.0163655641283
 20
239.7302943643074
 30
0.0
 11
182.1363655641282
 21
235.8902943643073
 31
0.0
  0
LINE
  5
282
330
6F
100
AcDbEntity
  8
_2-C_ハッチ
  6
Continuous
 62
    83
100
AcDbLine
 10
182.1363655641282
 20
239.7302943643074
 30
0.0
 11
185.0163655641283
 21
235.8902943643073
 31
0.0
  0
LINE
  5
283
330
6F
100
AcDbEntity
  8
_2-C_ハッチ
  6
Continuous
 62
    83
100
AcDbLine
 10
146.8163655641282
 20
239.7302943643074
 30
0.0
 11
143.9363655641282
 21
235.8902943643073
 31
0.0
  0
LINE
  5
284
330
6F
100
AcDbEntity
  8
_2-C_ハッチ
  6
Continuous
 62
    83
100
AcDbLine
 10
143.9363655641282
 20
239.7302943643074
 30
0.0
 11
146.8163655641282
 21
235.8902943643073
 31
0.0
  0
LINE
  5
285
330
6F
100
AcDbEntity
  8
_2-C_ハッチ
  6
Continuous
 62
    83
100
AcDbLine
 10
108.6163655641282
 20
239.7302943643074
 30
0.0
 11
105.7363655641282
 21
235.8902943643073
 31
0.0
  0
LINE
  5
286
330
6F
100
AcDbEntity
  8
_2-C_ハッチ
  6
Continuous
 62
    83
100
AcDbLine
 10
105.7363655641281
 20
239.7302943643074
 30
0.0
 11
108.6163655641281
 21
235.8902943643073
 31
0.0
  0
LINE
  5
287
330
6F
100
AcDbEntity
  8
_2-C_ハッチ
  6
Continuous
 62
    83
100
AcDbLine
 10
79.96636556412823
 20
239.7302943643074
 30
0.0
 11
77.08636556412824
 21
235.8902943643073
 31
0.0
  0
LINE
  5
288
330
6F
100
AcDbEntity
  8
_2-C_ハッチ
  6
Continuous
 62
    83
100
AcDbLine
 10
77.08636556412819
 20
239.7302943643074
 30
0.0
 11
79.9663655641282
 21
235.8902943643073
 31
0.0
  0
LINE
  5
289
330
6F
100
AcDbEntity
  8
_2-C_ハッチ
  6
Continuous
 62
    83
100
AcDbLine
 10
238.893531290511
 20
212.6120378137713
 30
0.0
 11
242.8591998377453
 21
207.8259854094826
 31
0.0
  0
LINE
  5
28A
330
6F
100
AcDbEntity
  8
_2-C_ハッチ
  6
Continuous
 62
    83
100
AcDbLine
 10
242.9030895329532
 20
212.6120378137713
 30
0.0
 11
238.9374209857189
 21
207.8259854094826
 31
0.0
  0
LINE
  5
28B
330
6F
100
AcDbEntity
  8
_2-C_ハッチ
  6
Continuous
 62
    83
100
AcDbLine
 10
243.2763655641282
 20
218.4652943650757
 30
0.0
 11
242.0763655641281
 21
220.2652943650758
 31
0.0
  0
LINE
  5
28C
330
6F
100
AcDbEntity
  8
_2-C_ハッチ
  6
Continuous
 62
    83
100
AcDbLine
 10
47.36136556412816
 20
216.6102943643073
 30
0.0
 11
50.24136556412816
 21
211.8102943643072
 31
0.0
  0
LINE
  5
28D
330
6F
100
AcDbEntity
  8
_2-C_ハッチ
  6
Continuous
 62
    83
100
AcDbLine
 10
50.24136556412821
 20
216.6102943643073
 30
0.0
 11
47.36136556412822
 21
211.8102943643072
 31
0.0
  0
LINE
  5
28E
330
6F
100
AcDbEntity
  8
_2-C_ハッチ
  6
Continuous
 62
    83
100
AcDbLine
 10
48.52636556412818
 20
220.2652943650758
 30
0.0
 11
47.32636556412813
 21
218.4652943650757
 31
0.0
  0
LINE
  5
28F
330
6F
100
AcDbEntity
  8
_2-C_ハッチ
  6
Continuous
 62
    83
100
AcDbLine
 10
109.5121264277157
 20
234.8903389201033
 30
0.0
 11
110.3455886830631
 21
235.7238011754506
 31
0.0
  0
LINE
  5
290
330
6F
100
AcDbEntity
  8
_2-C_ハッチ
  6
Continuous
 62
    83
100
AcDbLine
 10
107.8150701528677
 20
234.8903389201037
 30
0.0
 11
110.3455886830631
 21
237.4208574502991
 31
0.0
  0
LINE
  5
291
330
6F
100
AcDbEntity
  8
_2-C_ハッチ
  6
Continuous
 62
    83
100
AcDbLine
 10
106.1180138780197
 20
234.890338920104
 30
0.0
 11
110.3455886830624
 21
239.1179137251468
 31
0.0
  0
LINE
  5
292
330
6F
100
AcDbEntity
  8
_2-C_ハッチ
  6
Continuous
 62
    83
100
AcDbLine
 10
104.4209576031726
 20
234.8903389201034
 30
0.0
 11
108.7460542368906
 21
239.2154355538214
 31
0.0
  0
LINE
  5
293
330
6F
100
AcDbEntity
  8
_2-C_ハッチ
  6
Continuous
 62
    83
100
AcDbLine
 10
102.7420999248093
 20
234.9085375165886
 30
0.0
 11
107.0489979620419
 21
239.2154355538212
 31
0.0
  0
LINE
  5
294
330
6F
100
AcDbEntity
  8
_2-C_ハッチ
  6
Continuous
 62
    83
100
AcDbLine
 10
101.0650585013783
 20
234.928552368004
 30
0.0
 11
105.3519416871959
 21
239.2154355538216
 31
0.0
  0
LINE
  5
295
330
6F
100
AcDbEntity
  8
_2-C_ハッチ
  6
Continuous
 62
    83
100
AcDbLine
 10
99.38801707794482
 20
234.9485672194189
 30
0.0
 11
103.6310398457302
 21
239.1915899872044
 31
0.0
  0
LINE
  5
296
330
6F
100
AcDbEntity
  8
_2-C_ハッチ
  6
Continuous
 62
    83
100
AcDbLine
 10
97.71097565451213
 20
234.9685820708346
 30
0.0
 11
101.907875012807
 21
239.1654814291295
 31
0.0
  0
LINE
  5
297
330
6F
100
AcDbEntity
  8
_2-C_ハッチ
  6
Continuous
 62
    83
100
AcDbLine
 10
96.03393423108038
 20
234.9885969222494
 30
0.0
 11
100.1847101798863
 21
239.1393728710553
 31
0.0
  0
LINE
  5
298
330
6F
100
AcDbEntity
  8
_2-C_ハッチ
  6
Continuous
 62
    83
100
AcDbLine
 10
94.35689280764757
 20
235.0086117736649
 30
0.0
 11
98.4615453469633
 21
239.1132643129807
 31
0.0
  0
LINE
  5
299
330
6F
100
AcDbEntity
  8
_2-C_ハッチ
  6
Continuous
 62
    83
100
AcDbLine
 10
92.64504944719783
 20
234.9938246880636
 30
0.0
 11
96.73838051403999
 21
239.0871557549058
 31
0.0
  0
LINE
  5
29A
330
6F
100
AcDbEntity
  8
_2-C_ハッチ
  6
Continuous
 62
    83
100
AcDbLine
 10
90.92188461427619
 20
234.9677161299885
 30
0.0
 11
95.01521568111934
 21
239.0610471968316
 31
0.0
  0
LINE
  5
29B
330
6F
100
AcDbEntity
  8
_2-C_ハッチ
  6
Continuous
 62
    83
100
AcDbLine
 10
89.1987197813537
 20
234.9416075719144
 30
0.0
 11
93.29205084819641
 21
239.0349386387571
 31
0.0
  0
LINE
  5
29C
330
6F
100
AcDbEntity
  8
_2-C_ハッチ
  6
Continuous
 62
    83
100
AcDbLine
 10
87.47555494843155
 20
234.9154990138397
 30
0.0
 11
91.56888601527418
 21
239.0088300806823
 31
0.0
  0
LINE
  5
29D
330
6F
100
AcDbEntity
  8
_2-C_ハッチ
  6
Continuous
 62
    83
100
AcDbLine
 10
85.7523901155092
 20
234.8893904557648
 30
0.0
 11
89.84572118235233
 21
238.9827215226079
 31
0.0
  0
LINE
  5
29E
330
6F
100
AcDbEntity
  8
_2-C_ハッチ
  6
Continuous
 62
    83
100
AcDbLine
 10
84.0292252825869
 20
234.8632818976909
 30
0.0
 11
88.12255634942957
 21
238.9566129645336
 31
0.0
  0
LINE
  5
29F
330
6F
100
AcDbEntity
  8
_2-C_ハッチ
  6
Continuous
 62
    83
100
AcDbLine
 10
82.30606044966579
 20
234.8371733396163
 30
0.0
 11
86.39939151650803
 21
238.9305044064585
 31
0.0
  0
LINE
  5
2A0
330
6F
100
AcDbEntity
  8
_2-C_ハッチ
  6
Continuous
 62
    83
100
AcDbLine
 10
80.58289561674229
 20
234.8110647815412
 30
0.0
 11
84.67622668358531
 21
238.9043958483842
 31
0.0
  0
LINE
  5
2A1
330
6F
100
AcDbEntity
  8
_2-C_ハッチ
  6
Continuous
 62
    83
100
AcDbLine
 10
78.85973078381963
 20
234.7849562234668
 30
0.0
 11
82.95306185066158
 21
238.8782872903088
 31
0.0
  0
LINE
  5
2A2
330
6F
100
AcDbEntity
  8
_2-C_ハッチ
  6
Continuous
 62
    83
100
AcDbLine
 10
77.13656595089902
 20
234.7588476653927
 30
0.0
 11
81.22853244374317
 21
238.850814158237
 31
0.0
  0
LINE
  5
2A3
330
6F
100
AcDbEntity
  8
_2-C_ハッチ
  6
Continuous
 62
    83
100
AcDbLine
 10
75.38156885000667
 20
234.7009068393488
 30
0.0
 11
79.50395633741115
 21
238.8232943267533
 31
0.0
  0
LINE
  5
2A4
330
6F
100
AcDbEntity
  8
_2-C_ハッチ
  6
Continuous
 62
    83
100
AcDbLine
 10
73.62345590456894
 20
234.6398501687594
 30
0.0
 11
77.77938023107816
 21
238.7957744952687
 31
0.0
  0
LINE
  5
2A5
330
6F
100
AcDbEntity
  8
_2-C_ハッチ
  6
Continuous
 62
    83
100
AcDbLine
 10
71.86534295913332
 20
234.5787934981704
 30
0.0
 11
76.05480412474793
 21
238.768254663785
 31
0.0
  0
LINE
  5
2A6
330
6F
100
AcDbEntity
  8
_2-C_ハッチ
  6
Continuous
 62
    83
100
AcDbLine
 10
70.10723001369496
 20
234.5177368275804
 30
0.0
 11
74.33022801841587
 21
238.7407348323013
 31
0.0
  0
LINE
  5
2A7
330
6F
100
AcDbEntity
  8
_2-C_ハッチ
  6
Continuous
 62
    83
100
AcDbLine
 10
68.34911706825863
 20
234.4566801569906
 30
0.0
 11
72.6056519120851
 21
238.713215000817
 31
0.0
  0
LINE
  5
2A8
330
6F
100
AcDbEntity
  8
_2-C_ハッチ
  6
Continuous
 62
    83
100
AcDbLine
 10
66.59100412282109
 20
234.3956234864014
 30
0.0
 11
70.88107580575261
 21
238.6856951693329
 31
0.0
  0
LINE
  5
2A9
330
6F
100
AcDbEntity
  8
_2-C_ハッチ
  6
Continuous
 62
    83
100
AcDbLine
 10
64.83289117738292
 20
234.3345668158116
 30
0.0
 11
69.15649969942058
 21
238.6581753378492
 31
0.0
  0
LINE
  5
2AA
330
6F
100
AcDbEntity
  8
_2-C_ハッチ
  6
Continuous
 62
    83
100
AcDbLine
 10
63.07477823194685
 20
234.2735101452221
 30
0.0
 11
67.43192359308998
 21
238.6306555063652
 31
0.0
  0
LINE
  5
2AB
330
6F
100
AcDbEntity
  8
_2-C_ハッチ
  6
Continuous
 62
    83
100
AcDbLine
 10
61.31666528650924
 20
234.2124534746329
 30
0.0
 11
65.71683997139015
 21
238.6126281595137
 31
0.0
  0
LINE
  5
2AC
330
6F
100
AcDbEntity
  8
_2-C_ハッチ
  6
Continuous
 62
    83
100
AcDbLine
 10
59.55855234107112
 20
234.1513968040431
 30
0.0
 11
64.00281313379354
 21
238.5956575967655
 31
0.0
  0
LINE
  5
2AD
330
6F
100
AcDbEntity
  8
_2-C_ハッチ
  6
Continuous
 62
    83
100
AcDbLine
 10
57.800439395635
 20
234.0903401334536
 30
0.0
 11
62.28878629619822
 21
238.5786870340167
 31
0.0
  0
LINE
  5
2AE
330
6F
100
AcDbEntity
  8
_2-C_ハッチ
  6
Continuous
 62
    83
100
AcDbLine
 10
55.89281898915388
 20
233.8797760018207
 30
0.0
 11
60.57475945860159
 21
238.5617164712685
 31
0.0
  0
LINE
  5
2AF
330
6F
100
AcDbEntity
  8
_2-C_ハッチ
  6
Continuous
 62
    83
100
AcDbLine
 10
53.93177618266165
 20
233.6157894701769
 30
0.0
 11
58.86073262100479
 21
238.5447459085201
 31
0.0
  0
LINE
  5
2B0
330
6F
100
AcDbEntity
  8
_2-C_ハッチ
  6
Continuous
 62
    83
100
AcDbLine
 10
51.97073337617238
 20
233.3518029385341
 30
0.0
 11
57.14670578340978
 21
238.5277753457716
 31
0.0
  0
LINE
  5
2B1
330
6F
100
AcDbEntity
  8
_2-C_ハッチ
  6
Continuous
 62
    83
100
AcDbLine
 10
51.22636556412837
 20
234.3044914013384
 30
0.0
 11
55.43267894581297
 21
238.5108047830231
 31
0.0
  0
LINE
  5
2B2
330
6F
100
AcDbEntity
  8
_2-C_ハッチ
  6
Continuous
 62
    83
100
AcDbLine
 10
51.2263655641282
 20
236.0015476761849
 30
0.0
 11
53.71865210821792
 21
238.4938342202746
 31
0.0
  0
LINE
  5
2B3
330
6F
100
AcDbEntity
  8
_2-C_ハッチ
  6
Continuous
 62
    83
100
AcDbLine
 10
50.73805597740225
 20
237.2102943643073
 30
0.0
 11
52.00462527062086
 21
238.4768636575258
 31
0.0
  0
LINE
  5
2B4
330
6F
100
AcDbEntity
  8
_2-C_ハッチ
  6
Continuous
 62
    83
100
AcDbLine
 10
49.04099970255413
 20
237.2102943643075
 30
0.0
 11
50.29059843302434
 21
238.4598930947777
 31
0.0
  0
LINE
  5
2B5
330
6F
100
AcDbEntity
  8
_2-C_ハッチ
  6
Continuous
 62
    83
100
AcDbLine
 10
48.52636556412798
 20
238.392716500728
 30
0.0
 11
48.57657159542936
 21
238.4429225320293
 31
0.0
  0
LINE
  5
2B6
330
6F
100
AcDbEntity
  8
_2-C_ハッチ
  6
Continuous
 62
    83
100
AcDbLine
 10
238.6629493551599
 20
233.3678286842743
 30
0.0
 11
239.5263655641282
 21
234.2312448932426
 31
0.0
  0
LINE
  5
2B7
330
6F
100
AcDbEntity
  8
_2-C_ハッチ
  6
Continuous
 62
    83
100
AcDbLine
 10
237.1672387400409
 20
233.5691743440019
 30
0.0
 11
239.5263655641281
 21
235.9283011680891
 31
0.0
  0
LINE
  5
2B8
330
6F
100
AcDbEntity
  8
_2-C_ハッチ
  6
Continuous
 62
    83
100
AcDbLine
 10
240.8083587603464
 20
237.2102943643075
 30
0.0
 11
242.1880068536541
 21
238.5899424576151
 31
0.0
  0
LINE
  5
2B9
330
6F
100
AcDbEntity
  8
_2-C_ハッチ
  6
Continuous
 62
    83
100
AcDbLine
 10
235.6715281249204
 20
233.7705200037297
 30
0.0
 11
240.4909505788061
 21
238.5899424576154
 31
0.0
  0
LINE
  5
2BA
330
6F
100
AcDbEntity
  8
_2-C_ハッチ
  6
Continuous
 62
    83
100
AcDbLine
 10
234.1758175097996
 20
233.9718656634573
 30
0.0
 11
238.7938943039576
 21
238.5899424576153
 31
0.0
  0
LINE
  5
2BB
330
6F
100
AcDbEntity
  8
_2-C_ハッチ
  6
Continuous
 62
    83
100
AcDbLine
 10
232.6091524271348
 20
234.1022568556391
 30
0.0
 11
237.0968380291109
 21
238.5899424576151
 31
0.0
  0
LINE
  5
2BC
330
6F
100
AcDbEntity
  8
_2-C_ハッチ
  6
Continuous
 62
    83
100
AcDbLine
 10
230.9690543408096
 20
234.1592150441623
 30
0.0
 11
235.3997817542628
 21
238.5899424576154
 31
0.0
  0
LINE
  5
2BD
330
6F
100
AcDbEntity
  8
_2-C_ハッチ
  6
Continuous
 62
    83
100
AcDbLine
 10
229.3289562544842
 20
234.2161732326852
 30
0.0
 11
233.7027254794143
 21
238.5899424576152
 31
0.0
  0
LINE
  5
2BE
330
6F
100
AcDbEntity
  8
_2-C_ハッチ
  6
Continuous
 62
    83
100
AcDbLine
 10
227.6888581681611
 20
234.2731314212086
 30
0.0
 11
231.9598013402941
 21
238.5440745933417
 31
0.0
  0
LINE
  5
2BF
330
6F
100
AcDbEntity
  8
_2-C_ハッチ
  6
Continuous
 62
    83
100
AcDbLine
 10
226.0487600818356
 20
234.3300896097316
 30
0.0
 11
230.2793828720617
 21
238.5607123999576
 31
0.0
  0
LINE
  5
2C0
330
6F
100
AcDbEntity
  8
_2-C_ハッチ
  6
Continuous
 62
    83
100
AcDbLine
 10
224.4086619955113
 20
234.3870477982546
 30
0.0
 11
228.5989644038304
 21
238.5773502065737
 31
0.0
  0
LINE
  5
2C1
330
6F
100
AcDbEntity
  8
_2-C_ハッチ
  6
Continuous
 62
    83
100
AcDbLine
 10
222.7685639091874
 20
234.4440059867781
 30
0.0
 11
226.9185459355992
 21
238.5939880131899
 31
0.0
  0
LINE
  5
2C2
330
6F
100
AcDbEntity
  8
_2-C_ハッチ
  6
Continuous
 62
    83
100
AcDbLine
 10
221.1284658228621
 20
234.5009641753013
 30
0.0
 11
225.2381274673665
 21
238.6106258198056
 31
0.0
  0
LINE
  5
2C3
330
6F
100
AcDbEntity
  8
_2-C_ハッチ
  6
Continuous
 62
    83
100
AcDbLine
 10
219.4883677365385
 20
234.5579223638242
 30
0.0
 11
223.5577089991361
 21
238.6272636264217
 31
0.0
  0
LINE
  5
2C4
330
6F
100
AcDbEntity
  8
_2-C_ハッチ
  6
Continuous
 62
    83
100
AcDbLine
 10
217.8482696502135
 20
234.6148805523476
 30
0.0
 11
221.8869256973865
 21
238.6535365995206
 31
0.0
  0
LINE
  5
2C5
330
6F
100
AcDbEntity
  8
_2-C_ハッチ
  6
Continuous
 62
    83
100
AcDbLine
 10
216.2081715638886
 20
234.671838740871
 30
0.0
 11
220.2165247566984
 21
238.6801919336808
 31
0.0
  0
LINE
  5
2C6
330
6F
100
AcDbEntity
  8
_2-C_ハッチ
  6
Continuous
 62
    83
100
AcDbLine
 10
214.5680734775647
 20
234.7287969293937
 30
0.0
 11
218.5461238160118
 21
238.7068472678408
 31
0.0
  0
LINE
  5
2C7
330
6F
100
AcDbEntity
  8
_2-C_ハッチ
  6
Continuous
 62
    83
100
AcDbLine
 10
212.9117410318289
 20
234.7695207585063
 30
0.0
 11
216.8757228753232
 21
238.7335026020006
 31
0.0
  0
LINE
  5
2C8
330
6F
100
AcDbEntity
  8
_2-C_ハッチ
  6
Continuous
 62
    83
100
AcDbLine
 10
211.2400139551129
 20
234.7948499566387
 30
0.0
 11
215.2053219346349
 21
238.7601579361605
 31
0.0
  0
LINE
  5
2C9
330
6F
100
AcDbEntity
  8
_2-C_ハッチ
  6
Continuous
 62
    83
100
AcDbLine
 10
209.5682868783979
 20
234.8201791547702
 30
0.0
 11
213.5349209939484
 21
238.7868132703206
 31
0.0
  0
LINE
  5
2CA
330
6F
100
AcDbEntity
  8
_2-C_ハッチ
  6
Continuous
 62
    83
100
AcDbLine
 10
207.8965598016818
 20
234.8455083529024
 30
0.0
 11
211.8645200532597
 21
238.8134686044804
 31
0.0
  0
LINE
  5
2CB
330
6F
100
AcDbEntity
  8
_2-C_ハッチ
  6
Continuous
 62
    83
100
AcDbLine
 10
206.2248327249669
 20
234.8708375510341
 30
0.0
 11
210.1941191125732
 21
238.8401239386403
 31
0.0
  0
LINE
  5
2CC
330
6F
100
AcDbEntity
  8
_2-C_ハッチ
  6
Continuous
 62
    83
100
AcDbLine
 10
204.5531056482507
 20
234.8961667491663
 30
0.0
 11
208.523718171885
 21
238.8667792728006
 31
0.0
  0
LINE
  5
2CD
330
6F
100
AcDbEntity
  8
_2-C_ハッチ
  6
Continuous
 62
    83
100
AcDbLine
 10
202.8813785715347
 20
234.9214959472986
 30
0.0
 11
206.8525206513075
 21
238.8926380270714
 31
0.0
  0
LINE
  5
2CE
330
6F
100
AcDbEntity
  8
_2-C_ハッチ
  6
Continuous
 62
    83
100
AcDbLine
 10
201.2096514948199
 20
234.9468251454304
 30
0.0
 11
205.1807935745929
 21
238.9179672252033
 31
0.0
  0
LINE
  5
2CF
330
6F
100
AcDbEntity
  8
_2-C_ハッチ
  6
Continuous
 62
    83
100
AcDbLine
 10
199.5379244181036
 20
234.9721543435625
 30
0.0
 11
203.509066497877
 21
238.9432964233358
 31
0.0
  0
LINE
  5
2D0
330
6F
100
AcDbEntity
  8
_2-C_ハッチ
  6
Continuous
 62
    83
100
AcDbLine
 10
197.8661973413876
 20
234.9974835416948
 30
0.0
 11
201.8373394211607
 21
238.968625621468
 31
0.0
  0
LINE
  5
2D1
330
6F
100
AcDbEntity
  8
_2-C_ハッチ
  6
Continuous
 62
    83
100
AcDbLine
 10
196.1944702646729
 20
235.0228127398266
 30
0.0
 11
200.1656123444459
 21
238.9939548195996
 31
0.0
  0
LINE
  5
2D2
330
6F
100
AcDbEntity
  8
_2-C_ハッチ
  6
Continuous
 62
    83
100
AcDbLine
 10
194.5227431879565
 20
235.0481419379586
 30
0.0
 11
198.4938852677298
 21
239.019284017732
 31
0.0
  0
LINE
  5
2D3
330
6F
100
AcDbEntity
  8
_2-C_ハッチ
  6
Continuous
 62
    83
100
AcDbLine
 10
192.8510161112405
 20
235.073471136091
 30
0.0
 11
196.8221479552094
 21
239.0446029800599
 31
0.0
  0
LINE
  5
2D4
330
6F
100
AcDbEntity
  8
_2-C_ハッチ
  6
Continuous
 62
    83
100
AcDbLine
 10
186.1724555265661
 20
230.0919668262632
 30
0.0
 11
186.4857735105284
 21
230.4052848102255
 31
0.0
  0
LINE
  5
2D5
330
6F
100
AcDbEntity
  8
_2-C_ハッチ
  6
Continuous
 62
    83
100
AcDbLine
 10
191.1792890345258
 20
235.0988003342229
 30
0.0
 11
195.1500483902865
 21
239.0695596899834
 31
0.0
  0
LINE
  5
2D6
330
6F
100
AcDbEntity
  8
_2-C_ハッチ
  6
Continuous
 62
    83
100
AcDbLine
 10
185.6566377532469
 20
231.2732053277923
 30
0.0
 11
186.4857735105283
 21
232.1023410850737
 31
0.0
  0
LINE
  5
2D7
330
6F
100
AcDbEntity
  8
_2-C_ハッチ
  6
Continuous
 62
    83
100
AcDbLine
 10
189.5075619578094
 20
235.1241295323548
 30
0.0
 11
193.4779488253624
 21
239.0945163999079
 31
0.0
  0
LINE
  5
2D8
330
6F
100
AcDbEntity
  8
_2-C_ハッチ
  6
Continuous
 62
    83
100
AcDbLine
 10
185.3749464372555
 20
232.6885702866474
 30
0.0
 11
186.4857735105286
 21
233.7993973599205
 31
0.0
  0
LINE
  5
2D9
330
6F
100
AcDbEntity
  8
_2-C_ハッチ
  6
Continuous
 62
    83
100
AcDbLine
 10
187.8358348810948
 20
235.1494587304867
 30
0.0
 11
191.80584926044
 21
239.1194731098319
 31
0.0
  0
LINE
  5
2DA
330
6F
100
AcDbEntity
  8
_2-C_ハッチ
  6
Continuous
 62
    83
100
AcDbLine
 10
183.6778901624073
 20
232.6885702866476
 30
0.0
 11
190.1337496955159
 21
239.1444298197562
 31
0.0
  0
LINE
  5
2DB
330
6F
100
AcDbEntity
  8
_2-C_ハッチ
  6
Continuous
 62
    83
100
AcDbLine
 10
179.9398599515216
 20
230.6475963506104
 30
0.0
 11
181.4763655641289
 21
232.1841019632175
 31
0.0
  0
LINE
  5
2DC
330
6F
100
AcDbEntity
  8
_2-C_ハッチ
  6
Continuous
 62
    83
100
AcDbLine
 10
181.9808338875581
 20
232.6885702866468
 30
0.0
 11
188.4616501305917
 21
239.1693865296804
 31
0.0
  0
LINE
  5
2DD
330
6F
100
AcDbEntity
  8
_2-C_ハッチ
  6
Continuous
 62
    83
100
AcDbLine
 10
178.3300124048537
 20
230.7348050787889
 30
0.0
 11
186.7895505656696
 21
239.1943432396048
 31
0.0
  0
LINE
  5
2DE
330
6F
100
AcDbEntity
  8
_2-C_ハッチ
  6
Continuous
 62
    83
100
AcDbLine
 10
176.7201648581839
 20
230.8220138069675
 30
0.0
 11
185.1135866050381
 21
239.2154355538216
 31
0.0
  0
LINE
  5
2DF
330
6F
100
AcDbEntity
  8
_2-C_ハッチ
  6
Continuous
 62
    83
100
AcDbLine
 10
175.1103173115135
 20
230.9092225351453
 30
0.0
 11
183.4165303301897
 21
239.2154355538217
 31
0.0
  0
LINE
  5
2E0
330
6F
100
AcDbEntity
  8
_2-C_ハッチ
  6
Continuous
 62
    83
100
AcDbLine
 10
173.5004697648454
 20
230.9964312633239
 30
0.0
 11
179.2736486604147
 21
236.7696101588932
 31
0.0
  0
LINE
  5
2E1
330
6F
100
AcDbEntity
  8
_2-C_ハッチ
  6
Continuous
 62
    83
100
AcDbLine
 10
180.4071424451935
 20
237.903103943672
 30
0.0
 11
181.7194740553435
 21
239.215435553822
 31
0.0
  0
LINE
  5
2E2
330
6F
100
AcDbEntity
  8
_2-C_ハッチ
  6
Continuous
 62
    83
100
AcDbLine
 10
171.8906222181756
 20
231.0836399915025
 30
0.0
 11
177.6333150349197
 21
236.8263328082465
 31
0.0
  0
LINE
  5
2E3
330
6F
100
AcDbEntity
  8
_2-C_ハッチ
  6
Continuous
 62
    83
100
AcDbLine
 10
170.2807746715052
 20
231.1708487196804
 30
0.0
 11
175.9929814094252
 21
236.8830554576005
 31
0.0
  0
LINE
  5
2E4
330
6F
100
AcDbEntity
  8
_2-C_ハッチ
  6
Continuous
 62
    83
100
AcDbLine
 10
168.670927124837
 20
231.2580574478588
 30
0.0
 11
174.3526477839324
 21
236.9397781069541
 31
0.0
  0
LINE
  5
2E5
330
6F
100
AcDbEntity
  8
_2-C_ハッチ
  6
Continuous
 62
    83
100
AcDbLine
 10
167.0610795781672
 20
231.3452661760373
 30
0.0
 11
172.7123141584371
 21
236.9965007563073
 31
0.0
  0
LINE
  5
2E6
330
6F
100
AcDbEntity
  8
_2-C_ハッチ
  6
Continuous
 62
    83
100
AcDbLine
 10
165.4512320314986
 20
231.4324749042153
 30
0.0
 11
171.0719805329444
 21
237.0532234056612
 31
0.0
  0
LINE
  5
2E7
330
6F
100
AcDbEntity
  8
_2-C_ハッチ
  6
Continuous
 62
    83
100
AcDbLine
 10
163.8413844848288
 20
231.5196836323938
 30
0.0
 11
169.43164690745
 21
237.109946055015
 31
0.0
  0
LINE
  5
2E8
330
6F
100
AcDbEntity
  8
_2-C_ハッチ
  6
Continuous
 62
    83
100
AcDbLine
 10
162.2143061181782
 20
231.5896615405916
 30
0.0
 11
167.7913132819545
 21
237.166668704368
 31
0.0
  0
LINE
  5
2E9
330
6F
100
AcDbEntity
  8
_2-C_ハッチ
  6
Continuous
 62
    83
100
AcDbLine
 10
160.5428422570358
 20
231.6152539542958
 30
0.0
 11
166.1428198451317
 21
237.2152315423916
 31
0.0
  0
LINE
  5
2EA
330
6F
100
AcDbEntity
  8
_2-C_ハッチ
  6
Continuous
 62
    83
100
AcDbLine
 10
158.8713783958926
 20
231.6408463680009
 30
0.0
 11
164.4745413191281
 21
237.2440092912365
 31
0.0
  0
LINE
  5
2EB
330
6F
100
AcDbEntity
  8
_2-C_ハッチ
  6
Continuous
 62
    83
100
AcDbLine
 10
157.1999145347493
 20
231.666438781706
 30
0.0
 11
162.8062627931235
 21
237.2727870400803
 31
0.0
  0
LINE
  5
2EC
330
6F
100
AcDbEntity
  8
_2-C_ハッチ
  6
Continuous
 62
    83
100
AcDbLine
 10
155.5284506736069
 20
231.6920311954101
 30
0.0
 11
161.137984267122
 21
237.3015647889252
 31
0.0
  0
LINE
  5
2ED
330
6F
100
AcDbEntity
  8
_2-C_ハッチ
  6
Continuous
 62
    83
100
AcDbLine
 10
153.8569868124636
 20
231.7176236091152
 30
0.0
 11
159.4697057411182
 21
237.3303425377698
 31
0.0
  0
LINE
  5
2EE
330
6F
100
AcDbEntity
  8
_2-C_ハッチ
  6
Continuous
 62
    83
100
AcDbLine
 10
152.1855229513212
 20
231.7432160228202
 30
0.0
 11
157.8014272151148
 21
237.3591202866138
 31
0.0
  0
LINE
  5
2EF
330
6F
100
AcDbEntity
  8
_2-C_ハッチ
  6
Continuous
 62
    83
100
AcDbLine
 10
150.514059090178
 20
231.7688084365244
 30
0.0
 11
156.1331486891122
 21
237.3878980354587
 31
0.0
  0
LINE
  5
2F0
330
6F
100
AcDbEntity
  8
_2-C_ハッチ
  6
Continuous
 62
    83
100
AcDbLine
 10
148.8425952290348
 20
231.7944008502296
 30
0.0
 11
154.4648701631076
 21
237.4166757843024
 31
0.0
  0
LINE
  5
2F1
330
6F
100
AcDbEntity
  8
_2-C_ハッチ
  6
Continuous
 62
    83
100
AcDbLine
 10
147.1711313678924
 20
231.8199932639338
 30
0.0
 11
152.796591637106
 21
237.4454535331474
 31
0.0
  0
LINE
  5
2F2
330
6F
100
AcDbEntity
  8
_2-C_ハッチ
  6
Continuous
 62
    83
100
AcDbLine
 10
145.4717490591364
 20
231.8176672300261
 30
0.0
 11
151.1283131111025
 21
237.4742312819923
 31
0.0
  0
LINE
  5
2F3
330
6F
100
AcDbEntity
  8
_2-C_ハッチ
  6
Continuous
 62
    83
100
AcDbLine
 10
143.7569446570454
 20
231.7999191027834
 30
0.0
 11
149.4600345850979
 21
237.503009030836
 31
0.0
  0
LINE
  5
2F4
330
6F
100
AcDbEntity
  8
_2-C_ハッチ
  6
Continuous
 62
    83
100
AcDbLine
 10
142.0421402549556
 20
231.7821709755403
 30
0.0
 11
147.7917560590963
 21
237.5317867796809
 31
0.0
  0
LINE
  5
2F5
330
6F
100
AcDbEntity
  8
_2-C_ハッチ
  6
Continuous
 62
    83
100
AcDbLine
 10
140.3273358528648
 20
231.7644228482978
 30
0.0
 11
146.1234775330927
 21
237.5605645285257
 31
0.0
  0
LINE
  5
2F6
330
6F
100
AcDbEntity
  8
_2-C_ハッチ
  6
Continuous
 62
    83
100
AcDbLine
 10
138.6297772381938
 20
231.7639205084752
 30
0.0
 11
144.4516593144673
 21
237.5858025847486
 31
0.0
  0
LINE
  5
2F7
330
6F
100
AcDbEntity
  8
_2-C_ハッチ
  6
Continuous
 62
    83
100
AcDbLine
 10
136.9895889987993
 20
231.8207885439273
 30
0.0
 11
142.7442739508215
 21
237.5754734959495
 31
0.0
  0
LINE
  5
2F8
330
6F
100
AcDbEntity
  8
_2-C_ハッチ
  6
Continuous
 62
    83
100
AcDbLine
 10
135.3494007594032
 20
231.8776565793795
 30
0.0
 11
141.0368885871738
 21
237.5651444071501
 31
0.0
  0
LINE
  5
2F9
330
6F
100
AcDbEntity
  8
_2-C_ハッチ
  6
Continuous
 62
    83
100
AcDbLine
 10
133.7092125200091
 20
231.934524614832
 30
0.0
 11
139.3295032235271
 21
237.55481531835
 31
0.0
  0
LINE
  5
2FA
330
6F
100
AcDbEntity
  8
_2-C_ハッチ
  6
Continuous
 62
    83
100
AcDbLine
 10
132.0690242806124
 20
231.9913926502836
 30
0.0
 11
137.6221178598792
 21
237.5444862295505
 31
0.0
  0
LINE
  5
2FB
330
6F
100
AcDbEntity
  8
_2-C_ハッチ
  6
Continuous
 62
    83
100
AcDbLine
 10
130.4288360412162
 20
232.0482606857357
 30
0.0
 11
135.9147324962313
 21
237.5341571407509
 31
0.0
  0
LINE
  5
2FC
330
6F
100
AcDbEntity
  8
_2-C_ハッチ
  6
Continuous
 62
    83
100
AcDbLine
 10
128.788647801822
 20
232.1051287211881
 30
0.0
 11
134.207347132585
 21
237.5238280519512
 31
0.0
  0
LINE
  5
2FD
330
6F
100
AcDbEntity
  8
_2-C_ハッチ
  6
Continuous
 62
    83
100
AcDbLine
 10
127.1381253047471
 20
232.1516624989616
 30
0.0
 11
132.4999617689369
 21
237.5134989631514
 31
0.0
  0
LINE
  5
2FE
330
6F
100
AcDbEntity
  8
_2-C_ハッチ
  6
Continuous
 62
    83
100
AcDbLine
 10
125.4335798139233
 20
232.1441732829861
 30
0.0
 11
130.7925764052891
 21
237.5031698743519
 31
0.0
  0
LINE
  5
2FF
330
6F
100
AcDbEntity
  8
_2-C_ハッチ
  6
Continuous
 62
    83
100
AcDbLine
 10
123.729034323102
 20
232.1366840670114
 30
0.0
 11
129.0851910416423
 21
237.4928407855517
 31
0.0
  0
LINE
  5
300
330
6F
100
AcDbEntity
  8
_2-C_ハッチ
  6
Continuous
 62
    83
100
AcDbLine
 10
122.0244888322782
 20
232.129194851036
 30
0.0
 11
127.3796291418809
 21
237.4843351606387
 31
0.0
  0
LINE
  5
301
330
6F
100
AcDbEntity
  8
_2-C_ハッチ
  6
Continuous
 62
    83
100
AcDbLine
 10
120.3199433414544
 20
232.1217056350605
 30
0.0
 11
125.6750836510575
 21
237.4768459446636
 31
0.0
  0
LINE
  5
302
330
6F
100
AcDbEntity
  8
_2-C_ハッチ
  6
Continuous
 62
    83
100
AcDbLine
 10
118.6153978506331
 20
232.1142164190857
 30
0.0
 11
123.9705381602351
 21
237.4693567286878
 31
0.0
  0
LINE
  5
303
330
6F
100
AcDbEntity
  8
_2-C_ハッチ
  6
Continuous
 62
    83
100
AcDbLine
 10
116.9108523598087
 20
232.1067272031097
 30
0.0
 11
122.265992669412
 21
237.4618675127131
 31
0.0
  0
LINE
  5
304
330
6F
100
AcDbEntity
  8
_2-C_ハッチ
  6
Continuous
 62
    83
100
AcDbLine
 10
115.2063068689874
 20
232.099237987135
 30
0.0
 11
120.5614471785902
 21
237.4543782967378
 31
0.0
  0
LINE
  5
305
330
6F
100
AcDbEntity
  8
_2-C_ハッチ
  6
Continuous
 62
    83
100
AcDbLine
 10
113.4637968558112
 20
232.0537842488072
 30
0.0
 11
118.8569016877659
 21
237.446889080762
 31
0.0
  0
LINE
  5
306
330
6F
100
AcDbEntity
  8
_2-C_ハッチ
  6
Continuous
 62
    83
100
AcDbLine
 10
111.7027559977093
 20
231.9897996655536
 30
0.0
 11
117.1523561969431
 21
237.4393998647875
 31
0.0
  0
LINE
  5
307
330
6F
100
AcDbEntity
  8
_2-C_ハッチ
  6
Continuous
 62
    83
100
AcDbLine
 10
109.9417151396098
 20
231.9258150823007
 30
0.0
 11
115.4388456497652
 21
237.4229455924561
 31
0.0
  0
LINE
  5
308
330
6F
100
AcDbEntity
  8
_2-C_ハッチ
  6
Continuous
 62
    83
100
AcDbLine
 10
108.9763655641282
 20
232.6575217816674
 30
0.0
 11
113.6758999236972
 21
237.3570561412364
 31
0.0
  0
LINE
  5
309
330
6F
100
AcDbEntity
  8
_2-C_ハッチ
  6
Continuous
 62
    83
100
AcDbLine
 10
107.6109163553255
 20
232.9891288477131
 30
0.0
 11
109.5121264277157
 21
234.8903389201033
 31
0.0
  0
LINE
  5
30A
330
6F
100
AcDbEntity
  8
_2-C_ハッチ
  6
Continuous
 62
    83
100
AcDbLine
 10
110.3455886830631
 20
235.7238011754507
 30
0.0
 11
111.9129541976295
 21
237.291166690017
 31
0.0
  0
LINE
  5
30B
330
6F
100
AcDbEntity
  8
_2-C_ハッチ
  6
Continuous
 62
    83
100
AcDbLine
 10
104.8188572140784
 20
231.8941259813125
 30
0.0
 11
105.3763655641285
 21
232.4516343313627
 31
0.0
  0
LINE
  5
30C
330
6F
100
AcDbEntity
  8
_2-C_ハッチ
  6
Continuous
 62
    83
100
AcDbLine
 10
105.9138600804786
 20
232.9891288477127
 30
0.0
 11
107.8150701528696
 21
234.8903389201038
 31
0.0
  0
LINE
  5
30D
330
6F
100
AcDbEntity
  8
_2-C_ハッチ
  6
Continuous
 62
    83
100
AcDbLine
 10
104.2669576177277
 20
233.0392826598103
 30
0.0
 11
106.1180138780217
 21
234.8903389201042
 31
0.0
  0
LINE
  5
30E
330
6F
100
AcDbEntity
  8
_2-C_ハッチ
  6
Continuous
 62
    83
100
AcDbLine
 10
104.2669576177283
 20
234.7363389346583
 30
0.0
 11
104.4209576031736
 21
234.8903389201036
 31
0.0
  0
LINE
  5
30F
330
6F
100
AcDbEntity
  8
_2-C_ハッチ
  6
Continuous
 62
    83
100
AcDbLine
 10
260.4475013698585
 20
204.240692453542
 30
0.0
 11
261.1763655641285
 21
204.969556647812
 31
0.0
  0
LINE
  5
310
330
6F
100
AcDbEntity
  8
_2-C_ハッチ
  6
Continuous
 62
    83
100
AcDbLine
 10
258.8376538231902
 20
204.3279011817202
 30
0.0
 11
261.1763655641285
 21
206.6666129226585
 31
0.0
  0
LINE
  5
311
330
6F
100
AcDbEntity
  8
_2-C_ハッチ
  6
Continuous
 62
    83
100
AcDbLine
 10
257.2278062765204
 20
204.4151099098988
 30
0.0
 11
261.1763655641285
 21
208.363669197507
 31
0.0
  0
LINE
  5
312
330
6F
100
AcDbEntity
  8
_2-C_ハッチ
  6
Continuous
 62
    83
100
AcDbLine
 10
255.6179587298516
 20
204.5023186380766
 30
0.0
 11
260.8155940437247
 21
209.6999539519496
 31
0.0
  0
LINE
  5
313
330
6F
100
AcDbEntity
  8
_2-C_ハッチ
  6
Continuous
 62
    83
100
AcDbLine
 10
254.008111183182
 20
204.5895273662552
 30
0.0
 11
259.2057464970549
 21
209.7871626801282
 31
0.0
  0
LINE
  5
314
330
6F
100
AcDbEntity
  8
_2-C_ハッチ
  6
Continuous
 62
    83
100
AcDbLine
 10
252.3982636365116
 20
204.6767360944333
 30
0.0
 11
257.5958989503847
 21
209.8743714083064
 31
0.0
  0
LINE
  5
315
330
6F
100
AcDbEntity
  8
_2-C_ハッチ
  6
Continuous
 62
    83
100
AcDbLine
 10
250.7884160898434
 20
204.7639448226117
 30
0.0
 11
255.9860514037163
 21
209.9615801364846
 31
0.0
  0
LINE
  5
316
330
6F
100
AcDbEntity
  8
_2-C_ハッチ
  6
Continuous
 62
    83
100
AcDbLine
 10
249.1785685431737
 20
204.8511535507904
 30
0.0
 11
254.3762038570466
 21
210.0487888646632
 31
0.0
  0
LINE
  5
317
330
6F
100
AcDbEntity
  8
_2-C_ハッチ
  6
Continuous
 62
    83
100
AcDbLine
 10
247.5687209965033
 20
204.9383622789682
 30
0.0
 11
252.7663563103764
 21
210.1359975928413
 31
0.0
  0
LINE
  5
318
330
6F
100
AcDbEntity
  8
_2-C_ハッチ
  6
Continuous
 62
    83
100
AcDbLine
 10
245.9588734498352
 20
205.0255710071467
 30
0.0
 11
251.156508763708
 21
210.2232063210195
 31
0.0
  0
LINE
  5
319
330
6F
100
AcDbEntity
  8
_2-C_ハッチ
  6
Continuous
 62
    83
100
AcDbLine
 10
244.3490259031655
 20
205.1127797353254
 30
0.0
 11
249.5466612170381
 21
210.3104150491979
 31
0.0
  0
LINE
  5
31A
330
6F
100
AcDbEntity
  8
_2-C_ハッチ
  6
Continuous
 62
    83
100
AcDbLine
 10
242.7391783564958
 20
205.1999884635032
 30
0.0
 11
247.9368136703687
 21
210.397623777376
 31
0.0
  0
LINE
  5
31B
330
6F
100
AcDbEntity
  8
_2-C_ハッチ
  6
Continuous
 62
    83
100
AcDbLine
 10
241.129330809827
 20
205.2871971916818
 30
0.0
 11
246.3269661236997
 21
210.4848325055544
 31
0.0
  0
LINE
  5
31C
330
6F
100
AcDbEntity
  8
_2-C_ハッチ
  6
Continuous
 62
    83
100
AcDbLine
 10
239.5194832631568
 20
205.3744059198599
 30
0.0
 11
244.7171185770294
 21
210.5720412337326
 31
0.0
  0
LINE
  5
31D
330
6F
100
AcDbEntity
  8
_2-C_ハッチ
  6
Continuous
 62
    83
100
AcDbLine
 10
237.8228536072827
 20
205.3748325388325
 30
0.0
 11
243.1072710303611
 21
210.6592499619108
 31
0.0
  0
LINE
  5
31E
330
6F
100
AcDbEntity
  8
_2-C_ハッチ
  6
Continuous
 62
    83
100
AcDbLine
 10
236.1136927917852
 20
205.3627279981833
 30
0.0
 11
241.4974234836913
 21
210.7464586900894
 31
0.0
  0
LINE
  5
31F
330
6F
100
AcDbEntity
  8
_2-C_ハッチ
  6
Continuous
 62
    83
100
AcDbLine
 10
234.4045319762868
 20
205.3506234575332
 30
0.0
 11
239.8875759370211
 21
210.8336674182675
 31
0.0
  0
LINE
  5
320
330
6F
100
AcDbEntity
  8
_2-C_ハッチ
  6
Continuous
 62
    83
100
AcDbLine
 10
232.6953711607911
 20
205.3385189168841
 30
0.0
 11
238.2160491381533
 21
210.8591968942462
 31
0.0
  0
LINE
  5
321
330
6F
100
AcDbEntity
  8
_2-C_ハッチ
  6
Continuous
 62
    83
100
AcDbLine
 10
230.9862103452936
 20
205.3264143762349
 30
0.0
 11
236.5068883226557
 21
210.847092353597
 31
0.0
  0
LINE
  5
322
330
6F
100
AcDbEntity
  8
_2-C_ハッチ
  6
Continuous
 62
    83
100
AcDbLine
 10
229.2770495297953
 20
205.314309835585
 30
0.0
 11
234.7977275071577
 21
210.8349878129474
 31
0.0
  0
LINE
  5
323
330
6F
100
AcDbEntity
  8
_2-C_ハッチ
  6
Continuous
 62
    83
100
AcDbLine
 10
227.5678887142994
 20
205.3022052949357
 30
0.0
 11
233.0885666916617
 21
210.822883272298
 31
0.0
  0
LINE
  5
324
330
6F
100
AcDbEntity
  8
_2-C_ハッチ
  6
Continuous
 62
    83
100
AcDbLine
 10
225.858727898802
 20
205.2901007542866
 30
0.0
 11
231.379405876164
 21
210.8107787316485
 31
0.0
  0
LINE
  5
325
330
6F
100
AcDbEntity
  8
_2-C_ハッチ
  6
Continuous
 62
    83
100
AcDbLine
 10
224.1495670833058
 20
205.277996213637
 30
0.0
 11
229.6702450606679
 21
210.798674190999
 31
0.0
  0
LINE
  5
326
330
6F
100
AcDbEntity
  8
_2-C_ハッチ
  6
Continuous
 62
    83
100
AcDbLine
 10
222.4387612174073
 20
205.2642466225868
 30
0.0
 11
227.9610842451698
 21
210.7865696503492
 31
0.0
  0
LINE
  5
327
330
6F
100
AcDbEntity
  8
_2-C_ハッチ
  6
Continuous
 62
    83
100
AcDbLine
 10
220.7239568153162
 20
205.2464984953441
 30
0.0
 11
226.2519234296723
 21
210.7744651097001
 31
0.0
  0
LINE
  5
328
330
6F
100
AcDbEntity
  8
_2-C_ハッチ
  6
Continuous
 62
    83
100
AcDbLine
 10
219.0091524132266
 20
205.228750368101
 30
0.0
 11
224.5427626141765
 21
210.7623605690509
 31
0.0
  0
LINE
  5
329
330
6F
100
AcDbEntity
  8
_2-C_ハッチ
  6
Continuous
 62
    83
100
AcDbLine
 10
217.2943480111355
 20
205.2110022408583
 30
0.0
 11
222.8336017986781
 21
210.7502560284009
 31
0.0
  0
LINE
  5
32A
330
6F
100
AcDbEntity
  8
_2-C_ハッチ
  6
Continuous
 62
    83
100
AcDbLine
 10
215.5828392461152
 20
205.1965497506864
 30
0.0
 11
221.1244409831805
 21
210.7381514877517
 31
0.0
  0
LINE
  5
32B
330
6F
100
AcDbEntity
  8
_2-C_ハッチ
  6
Continuous
 62
    83
100
AcDbLine
 10
213.9426510067207
 20
205.2534177861385
 30
0.0
 11
219.4387770066331
 21
210.7495437860508
 31
0.0
  0
LINE
  5
32C
330
6F
100
AcDbEntity
  8
_2-C_ハッチ
  6
Continuous
 62
    83
100
AcDbLine
 10
212.3024627673249
 20
205.3102858215909
 30
0.0
 11
217.7631208788896
 21
210.7709439331557
 31
0.0
  0
LINE
  5
32D
330
6F
100
AcDbEntity
  8
_2-C_ハッチ
  6
Continuous
 62
    83
100
AcDbLine
 10
210.6622745279283
 20
205.3671538570427
 30
0.0
 11
216.0874647511471
 21
210.7923440802616
 31
0.0
  0
LINE
  5
32E
330
6F
100
AcDbEntity
  8
_2-C_ハッチ
  6
Continuous
 62
    83
100
AcDbLine
 10
209.0220862885341
 20
205.4240218924952
 30
0.0
 11
214.411808623406
 21
210.813744227367
 31
0.0
  0
LINE
  5
32F
330
6F
100
AcDbEntity
  8
_2-C_ハッチ
  6
Continuous
 62
    83
100
AcDbLine
 10
207.3818980491383
 20
205.4808899279477
 30
0.0
 11
212.736152495663
 21
210.8351443744723
 31
0.0
  0
LINE
  5
330
330
6F
100
AcDbEntity
  8
_2-C_ハッチ
  6
Continuous
 62
    83
100
AcDbLine
 10
205.7417098097434
 20
205.5377579633993
 30
0.0
 11
211.0604963679224
 21
210.8565445215782
 31
0.0
  0
LINE
  5
331
330
6F
100
AcDbEntity
  8
_2-C_ハッチ
  6
Continuous
 62
    83
100
AcDbLine
 10
204.1015215703476
 20
205.5946259988519
 30
0.0
 11
209.3848402401793
 21
210.8779446686836
 31
0.0
  0
LINE
  5
332
330
6F
100
AcDbEntity
  8
_2-C_ハッチ
  6
Continuous
 62
    83
100
AcDbLine
 10
202.3986739781642
 20
205.5888346815168
 30
0.0
 11
207.7091841124364
 21
210.8993448157889
 31
0.0
  0
LINE
  5
333
330
6F
100
AcDbEntity
  8
_2-C_ハッチ
  6
Continuous
 62
    83
100
AcDbLine
 10
200.6941284873423
 20
205.5813454655414
 30
0.0
 11
206.0335279846957
 21
210.9207449628949
 31
0.0
  0
LINE
  5
334
330
6F
100
AcDbEntity
  8
_2-C_ハッチ
  6
Continuous
 62
    83
100
AcDbLine
 10
198.9895829965189
 20
205.5738562495665
 30
0.0
 11
204.3447233061213
 21
210.9289965591688
 31
0.0
  0
LINE
  5
335
330
6F
100
AcDbEntity
  8
_2-C_ハッチ
  6
Continuous
 62
    83
100
AcDbLine
 10
197.2850375056951
 20
205.5663670335909
 30
0.0
 11
202.6401778152978
 21
210.9215073431937
 31
0.0
  0
LINE
  5
336
330
6F
100
AcDbEntity
  8
_2-C_ハッチ
  6
Continuous
 62
    83
100
AcDbLine
 10
195.5804920148732
 20
205.5588778176156
 30
0.0
 11
200.9356323244764
 21
210.9140181272188
 31
0.0
  0
LINE
  5
337
330
6F
100
AcDbEntity
  8
_2-C_ハッチ
  6
Continuous
 62
    83
100
AcDbLine
 10
193.8759465240498
 20
205.5513886016406
 30
0.0
 11
199.2310868336522
 21
210.906528911243
 31
0.0
  0
LINE
  5
338
330
6F
100
AcDbEntity
  8
_2-C_ハッチ
  6
Continuous
 62
    83
100
AcDbLine
 10
192.171401033226
 20
205.5438993856651
 30
0.0
 11
197.5265413428285
 21
210.8990396952677
 31
0.0
  0
LINE
  5
339
330
6F
100
AcDbEntity
  8
_2-C_ハッチ
  6
Continuous
 62
    83
100
AcDbLine
 10
190.388861280101
 20
205.4584159073867
 30
0.0
 11
195.8219958520068
 21
210.8915504792927
 31
0.0
  0
LINE
  5
33A
330
6F
100
AcDbEntity
  8
_2-C_ハッチ
  6
Continuous
 62
    83
100
AcDbLine
 10
188.5235143889011
 20
205.2901252910352
 30
0.0
 11
194.1174503611831
 21
210.8840612633172
 31
0.0
  0
LINE
  5
33B
330
6F
100
AcDbEntity
  8
_2-C_ハッチ
  6
Continuous
 62
    83
100
AcDbLine
 10
186.6581674977033
 20
205.1218346746839
 30
0.0
 11
192.4129048703612
 21
210.8765720473419
 31
0.0
  0
LINE
  5
33C
330
6F
100
AcDbEntity
  8
_2-C_ハッチ
  6
Continuous
 62
    83
100
AcDbLine
 10
185.6763655641288
 20
205.8370890159578
 30
0.0
 11
190.6519125274908
 21
210.8126359793199
 31
0.0
  0
LINE
  5
33D
330
6F
100
AcDbEntity
  8
_2-C_ハッチ
  6
Continuous
 62
    83
100
AcDbLine
 10
185.6763655641284
 20
207.5341452908057
 30
0.0
 11
188.8889668014234
 21
210.7467465281008
 31
0.0
  0
LINE
  5
33E
330
6F
100
AcDbEntity
  8
_2-C_ハッチ
  6
Continuous
 62
    83
100
AcDbLine
 10
185.6763655641281
 20
209.2312015656521
 30
0.0
 11
187.1260210753573
 21
210.6808570768813
 31
0.0
  0
LINE
  5
33F
330
6F
100
AcDbEntity
  8
_2-C_ハッチ
  6
Continuous
 62
    83
100
AcDbLine
 10
181.0495709124783
 20
201.2102943643073
 30
0.0
 11
181.4763655641282
 21
201.6370890159573
 31
0.0
  0
LINE
  5
340
330
6F
100
AcDbEntity
  8
_2-C_ハッチ
  6
Continuous
 62
    83
100
AcDbLine
 10
179.3525146376297
 20
201.2102943643071
 30
0.0
 11
181.4763655641284
 21
203.3341452908059
 31
0.0
  0
LINE
  5
341
330
6F
100
AcDbEntity
  8
_2-C_ハッチ
  6
Continuous
 62
    83
100
AcDbLine
 10
177.6554583627812
 20
201.2102943643069
 30
0.0
 11
181.4763655641284
 21
205.0312015656541
 31
0.0
  0
LINE
  5
342
330
6F
100
AcDbEntity
  8
_2-C_ハッチ
  6
Continuous
 62
    83
100
AcDbLine
 10
175.9584020879351
 20
201.2102943643074
 30
0.0
 11
181.4763655641282
 21
206.7282578405005
 31
0.0
  0
LINE
  5
343
330
6F
100
AcDbEntity
  8
_2-C_ハッチ
  6
Continuous
 62
    83
100
AcDbLine
 10
174.2613458130866
 20
201.2102943643073
 30
0.0
 11
180.2613458130864
 21
207.2102943643071
 31
0.0
  0
LINE
  5
344
330
6F
100
AcDbEntity
  8
_2-C_ハッチ
  6
Continuous
 62
    83
100
AcDbLine
 10
172.564289538238
 20
201.210294364307
 30
0.0
 11
178.5642895382379
 21
207.2102943643069
 31
0.0
  0
LINE
  5
345
330
6F
100
AcDbEntity
  8
_2-C_ハッチ
  6
Continuous
 62
    83
100
AcDbLine
 10
170.8672332633919
 20
201.2102943643075
 30
0.0
 11
176.8672332633918
 21
207.2102943643074
 31
0.0
  0
LINE
  5
346
330
6F
100
AcDbEntity
  8
_2-C_ハッチ
  6
Continuous
 62
    83
100
AcDbLine
 10
169.1701769885434
 20
201.2102943643074
 30
0.0
 11
175.1701769885433
 21
207.2102943643073
 31
0.0
  0
LINE
  5
347
330
6F
100
AcDbEntity
  8
_2-C_ハッチ
  6
Continuous
 62
    83
100
AcDbLine
 10
167.4731207136948
 20
201.210294364307
 30
0.0
 11
173.4731207136947
 21
207.2102943643069
 31
0.0
  0
LINE
  5
348
330
6F
100
AcDbEntity
  8
_2-C_ハッチ
  6
Continuous
 62
    83
100
AcDbLine
 10
165.7760644388487
 20
201.2102943643076
 30
0.0
 11
171.7760644388486
 21
207.2102943643075
 31
0.0
  0
LINE
  5
349
330
6F
100
AcDbEntity
  8
_2-C_ハッチ
  6
Continuous
 62
    83
100
AcDbLine
 10
164.0790081640002
 20
201.2102943643074
 30
0.0
 11
170.0790081640001
 21
207.2102943643073
 31
0.0
  0
LINE
  5
34A
330
6F
100
AcDbEntity
  8
_2-C_ハッチ
  6
Continuous
 62
    83
100
AcDbLine
 10
162.3819518891536
 20
201.2102943643073
 30
0.0
 11
168.3819518891535
 21
207.2102943643073
 31
0.0
  0
LINE
  5
34B
330
6F
100
AcDbEntity
  8
_2-C_ハッチ
  6
Continuous
 62
    83
100
AcDbLine
 10
160.6848956143051
 20
201.2102943643073
 30
0.0
 11
166.684895614305
 21
207.2102943643072
 31
0.0
  0
LINE
  5
34C
330
6F
100
AcDbEntity
  8
_2-C_ハッチ
  6
Continuous
 62
    83
100
AcDbLine
 10
158.9878393394564
 20
201.2102943643069
 30
0.0
 11
164.9878393394569
 21
207.2102943643074
 31
0.0
  0
LINE
  5
34D
330
6F
100
AcDbEntity
  8
_2-C_ハッチ
  6
Continuous
 62
    83
100
AcDbLine
 10
157.2907830646103
 20
201.2102943643074
 30
0.0
 11
163.2907830646103
 21
207.2102943643073
 31
0.0
  0
LINE
  5
34E
330
6F
100
AcDbEntity
  8
_2-C_ハッチ
  6
Continuous
 62
    83
100
AcDbLine
 10
155.593726789762
 20
201.2102943643074
 30
0.0
 11
161.5937267897619
 21
207.2102943643073
 31
0.0
  0
LINE
  5
34F
330
6F
100
AcDbEntity
  8
_2-C_ハッチ
  6
Continuous
 62
    83
100
AcDbLine
 10
153.8966705149132
 20
201.210294364307
 30
0.0
 11
159.8966705149132
 21
207.2102943643069
 31
0.0
  0
LINE
  5
350
330
6F
100
AcDbEntity
  8
_2-C_ハッチ
  6
Continuous
 62
    83
100
AcDbLine
 10
152.1996142400672
 20
201.2102943643074
 30
0.0
 11
158.1996142400671
 21
207.2102943643074
 31
0.0
  0
LINE
  5
351
330
6F
100
AcDbEntity
  8
_2-C_ハッチ
  6
Continuous
 62
    83
100
AcDbLine
 10
150.5025579652188
 20
201.2102943643075
 30
0.0
 11
156.5025579652187
 21
207.2102943643074
 31
0.0
  0
LINE
  5
352
330
6F
100
AcDbEntity
  8
_2-C_ハッチ
  6
Continuous
 62
    83
100
AcDbLine
 10
148.8055016903711
 20
201.2102943643072
 30
0.0
 11
154.8055016903709
 21
207.210294364307
 31
0.0
  0
LINE
  5
353
330
6F
100
AcDbEntity
  8
_2-C_ハッチ
  6
Continuous
 62
    83
100
AcDbLine
 10
147.108445415524
 20
201.2102943643075
 30
0.0
 11
153.1084454155239
 21
207.2102943643075
 31
0.0
  0
LINE
  5
354
330
6F
100
AcDbEntity
  8
_2-C_ハッチ
  6
Continuous
 62
    83
100
AcDbLine
 10
145.4113891406757
 20
201.2102943643076
 30
0.0
 11
151.4113891406756
 21
207.2102943643075
 31
0.0
  0
LINE
  5
355
330
6F
100
AcDbEntity
  8
_2-C_ハッチ
  6
Continuous
 62
    83
100
AcDbLine
 10
143.7143328658288
 20
201.2102943643073
 30
0.0
 11
149.7143328658287
 21
207.2102943643073
 31
0.0
  0
LINE
  5
356
330
6F
100
AcDbEntity
  8
_2-C_ハッチ
  6
Continuous
 62
    83
100
AcDbLine
 10
142.0172765909808
 20
201.2102943643076
 30
0.0
 11
148.0172765909808
 21
207.2102943643076
 31
0.0
  0
LINE
  5
357
330
6F
100
AcDbEntity
  8
_2-C_ハッチ
  6
Continuous
 62
    83
100
AcDbLine
 10
140.3202203161322
 20
201.2102943643074
 30
0.0
 11
146.3202203161322
 21
207.2102943643074
 31
0.0
  0
LINE
  5
358
330
6F
100
AcDbEntity
  8
_2-C_ハッチ
  6
Continuous
 62
    83
100
AcDbLine
 10
138.6231640412856
 20
201.2102943643074
 30
0.0
 11
144.6231640412856
 21
207.2102943643073
 31
0.0
  0
LINE
  5
359
330
6F
100
AcDbEntity
  8
_2-C_ハッチ
  6
Continuous
 62
    83
100
AcDbLine
 10
136.9261077664374
 20
201.2102943643075
 30
0.0
 11
142.9261077664373
 21
207.2102943643074
 31
0.0
  0
LINE
  5
35A
330
6F
100
AcDbEntity
  8
_2-C_ハッチ
  6
Continuous
 62
    83
100
AcDbLine
 10
135.2290514915885
 20
201.210294364307
 30
0.0
 11
141.229051491589
 21
207.2102943643074
 31
0.0
  0
LINE
  5
35B
330
6F
100
AcDbEntity
  8
_2-C_ハッチ
  6
Continuous
 62
    83
100
AcDbLine
 10
133.5319952167425
 20
201.2102943643075
 30
0.0
 11
139.5319952167424
 21
207.2102943643074
 31
0.0
  0
LINE
  5
35C
330
6F
100
AcDbEntity
  8
_2-C_ハッチ
  6
Continuous
 62
    83
100
AcDbLine
 10
131.8349389418942
 20
201.2102943643076
 30
0.0
 11
137.8349389418941
 21
207.2102943643075
 31
0.0
  0
LINE
  5
35D
330
6F
100
AcDbEntity
  8
_2-C_ハッチ
  6
Continuous
 62
    83
100
AcDbLine
 10
130.1378826670473
 20
201.2102943643073
 30
0.0
 11
136.1378826670472
 21
207.2102943643072
 31
0.0
  0
LINE
  5
35E
330
6F
100
AcDbEntity
  8
_2-C_ハッチ
  6
Continuous
 62
    83
100
AcDbLine
 10
128.4408263921992
 20
201.2102943643075
 30
0.0
 11
134.4408263921992
 21
207.2102943643074
 31
0.0
  0
LINE
  5
35F
330
6F
100
AcDbEntity
  8
_2-C_ハッチ
  6
Continuous
 62
    83
100
AcDbLine
 10
126.7437701173511
 20
201.2102943643077
 30
0.0
 11
132.743770117351
 21
207.2102943643076
 31
0.0
  0
LINE
  5
360
330
6F
100
AcDbEntity
  8
_2-C_ハッチ
  6
Continuous
 62
    83
100
AcDbLine
 10
125.046713842504
 20
201.2102943643073
 30
0.0
 11
131.046713842504
 21
207.2102943643073
 31
0.0
  0
LINE
  5
361
330
6F
100
AcDbEntity
  8
_2-C_ハッチ
  6
Continuous
 62
    83
100
AcDbLine
 10
123.3496575676561
 20
201.2102943643076
 30
0.0
 11
129.349657567656
 21
207.2102943643076
 31
0.0
  0
LINE
  5
362
330
6F
100
AcDbEntity
  8
_2-C_ハッチ
  6
Continuous
 62
    83
100
AcDbLine
 10
121.6526012928079
 20
201.2102943643078
 30
0.0
 11
127.6526012928078
 21
207.2102943643077
 31
0.0
  0
LINE
  5
363
330
6F
100
AcDbEntity
  8
_2-C_ハッチ
  6
Continuous
 62
    83
100
AcDbLine
 10
119.9555450179609
 20
201.2102943643074
 30
0.0
 11
125.9555450179608
 21
207.2102943643073
 31
0.0
  0
LINE
  5
364
330
6F
100
AcDbEntity
  8
_2-C_ハッチ
  6
Continuous
 62
    83
100
AcDbLine
 10
118.2584887431128
 20
201.2102943643077
 30
0.0
 11
124.2584887431128
 21
207.2102943643077
 31
0.0
  0
LINE
  5
365
330
6F
100
AcDbEntity
  8
_2-C_ハッチ
  6
Continuous
 62
    83
100
AcDbLine
 10
116.5614324682648
 20
201.210294364307
 30
0.0
 11
122.5614324682647
 21
207.210294364307
 31
0.0
  0
LINE
  5
366
330
6F
100
AcDbEntity
  8
_2-C_ハッチ
  6
Continuous
 62
    83
100
AcDbLine
 10
114.8643761934177
 20
201.2102943643075
 30
0.0
 11
120.8643761934177
 21
207.2102943643074
 31
0.0
  0
LINE
  5
367
330
6F
100
AcDbEntity
  8
_2-C_ハッチ
  6
Continuous
 62
    83
100
AcDbLine
 10
113.1673199185696
 20
201.2102943643077
 30
0.0
 11
119.1673199185695
 21
207.2102943643076
 31
0.0
  0
LINE
  5
368
330
6F
100
AcDbEntity
  8
_2-C_ハッチ
  6
Continuous
 62
    83
100
AcDbLine
 10
111.4702636437225
 20
201.2102943643073
 30
0.0
 11
117.4702636437225
 21
207.2102943643072
 31
0.0
  0
LINE
  5
369
330
6F
100
AcDbEntity
  8
_2-C_ハッチ
  6
Continuous
 62
    83
100
AcDbLine
 10
109.7732073688745
 20
201.2102943643076
 30
0.0
 11
115.7732073688745
 21
207.2102943643075
 31
0.0
  0
LINE
  5
36A
330
6F
100
AcDbEntity
  8
_2-C_ハッチ
  6
Continuous
 62
    83
100
AcDbLine
 10
108.9763655641275
 20
202.110508834409
 30
0.0
 11
114.0761510940264
 21
207.2102943643078
 31
0.0
  0
LINE
  5
36B
330
6F
100
AcDbEntity
  8
_2-C_ハッチ
  6
Continuous
 62
    83
100
AcDbLine
 10
108.9763655641281
 20
203.807565109256
 30
0.0
 11
112.3790948191793
 21
207.2102943643073
 31
0.0
  0
LINE
  5
36C
330
6F
100
AcDbEntity
  8
_2-C_ハッチ
  6
Continuous
 62
    83
100
AcDbLine
 10
108.9763655641278
 20
205.5046213841041
 30
0.0
 11
110.6820385443313
 21
207.2102943643076
 31
0.0
  0
LINE
  5
36D
330
6F
100
AcDbEntity
  8
_2-C_ハッチ
  6
Continuous
 62
    83
100
AcDbLine
 10
108.9763655641275
 20
207.2016776589521
 30
0.0
 11
108.9849822694832
 21
207.2102943643079
 31
0.0
  0
LINE
  5
36E
330
6F
100
AcDbEntity
  8
_2-C_ハッチ
  6
Continuous
 62
    83
100
AcDbLine
 10
48.19390010013692
 20
209.2102943643274
 30
0.0
 11
48.82636556412808
 21
209.8427598283185
 31
0.0
  0
LINE
  5
36F
330
6F
100
AcDbEntity
  8
_2-C_ハッチ
  6
Continuous
 62
    83
100
AcDbLine
 10
46.49684382529036
 20
209.2102943643274
 30
0.0
 11
48.36062335970368
 21
211.0740738987407
 31
0.0
  0
LINE
  5
370
330
6F
100
AcDbEntity
  8
_2-C_ハッチ
  6
Continuous
 62
    83
100
AcDbLine
 10
31.9763655641284
 20
209.9633225767952
 30
0.0
 11
34.2233373516404
 21
212.2102943643073
 31
0.0
  0
LINE
  5
371
330
6F
100
AcDbEntity
  8
_2-C_ハッチ
  6
Continuous
 62
    83
100
AcDbLine
 10
44.79978755044217
 20
209.2102943643276
 30
0.0
 11
47.79978755042185
 21
212.2102943643073
 31
0.0
  0
LINE
  5
372
330
6F
100
AcDbEntity
  8
_2-C_ハッチ
  6
Continuous
 62
    83
100
AcDbLine
 10
43.10273127559315
 20
209.210294364327
 30
0.0
 11
46.10273127557348
 21
212.2102943643073
 31
0.0
  0
LINE
  5
373
330
6F
100
AcDbEntity
  8
_2-C_ハッチ
  6
Continuous
 62
    83
100
AcDbLine
 10
41.40567500074712
 20
209.2102943643275
 30
0.0
 11
44.40567500072699
 21
212.2102943643073
 31
0.0
  0
LINE
  5
374
330
6F
100
AcDbEntity
  8
_2-C_ハッチ
  6
Continuous
 62
    83
100
AcDbLine
 10
39.70861872589882
 20
209.2102943643276
 30
0.0
 11
42.70861872587857
 21
212.2102943643073
 31
0.0
  0
LINE
  5
375
330
6F
100
AcDbEntity
  8
_2-C_ハッチ
  6
Continuous
 62
    83
100
AcDbLine
 10
38.01156245105
 20
209.2102943643271
 30
0.0
 11
41.0115624510303
 21
212.2102943643073
 31
0.0
  0
LINE
  5
376
330
6F
100
AcDbEntity
  8
_2-C_ハッチ
  6
Continuous
 62
    83
100
AcDbLine
 10
36.31450617620391
 20
209.2102943643276
 30
0.0
 11
39.31450617618367
 21
212.2102943643073
 31
0.0
  0
LINE
  5
377
330
6F
100
AcDbEntity
  8
_2-C_ハッチ
  6
Continuous
 62
    83
100
AcDbLine
 10
34.61744990135534
 20
209.2102943643273
 30
0.0
 11
37.61744990133531
 21
212.2102943643073
 31
0.0
  0
LINE
  5
378
330
6F
100
AcDbEntity
  8
_2-C_ハッチ
  6
Continuous
 62
    83
100
AcDbLine
 10
32.92039362650877
 20
209.2102943643273
 30
0.0
 11
35.92039362648876
 21
212.2102943643073
 31
0.0
  0
LINE
  5
379
330
6F
100
AcDbEntity
  8
_2-E_文字
  6
Continuous
 62
     4
100
AcDbLine
 10
37.43568628134886
 20
222.4724030509538
 30
0.0
 11
21.43568628134886
 21
215.2724030509538
 31
0.0
  0
LINE
  5
37A
330
6F
100
AcDbEntity
  8
_2-E_文字
  6
Continuous
 62
     4
100
AcDbLine
 10
21.43568628134886
 20
222.4724030509538
 30
0.0
 11
21.43568628134886
 21
215.2724030509538
 31
0.0
  0
LINE
  5
37B
330
6F
100
AcDbEntity
  8
_2-E_文字
  6
Continuous
 62
     4
100
AcDbLine
 10
37.43568628134886
 20
222.4724030509538
 30
0.0
 11
21.43568628134886
 21
222.4724030509538
 31
0.0
  0
LINE
  5
37C
330
6F
100
AcDbEntity
  8
_2-E_文字
  6
Continuous
 62
     4
100
AcDbLine
 10
253.3170448469076
 20
222.4724030509538
 30
0.0
 11
269.3170448469075
 21
215.2724030509538
 31
0.0
  0
LINE
  5
37D
330
6F
100
AcDbEntity
  8
_2-E_文字
  6
Continuous
 62
     4
100
AcDbLine
 10
269.3170448469075
 20
222.4724030509538
 30
0.0
 11
269.3170448469075
 21
215.2724030509538
 31
0.0
  0
LINE
  5
37E
330
6F
100
AcDbEntity
  8
_2-E_文字
  6
Continuous
 62
     4
100
AcDbLine
 10
253.3170448469076
 20
222.4724030509538
 30
0.0
 11
269.3170448469075
 21
222.4724030509538
 31
0.0
  0
CIRCLE
  5
37F
330
6F
100
AcDbEntity
  8
_2-D_寸法
  6
Continuous
 62
     4
100
AcDbCircle
 10
286.3928571428571
 20
165.2102943643073
 30
0.0
 40
0.5999999999999999
  0
LINE
  5
380
330
6F
100
AcDbEntity
  8
_2-E_文字
  6
Continuous
 62
     4
100
AcDbLine
 10
268.8049883726447
 20
97.60606060606063
 30
0.0
 11
268.8049883726447
 21
101.6060606060606
 31
0.0
  0
LINE
  5
381
330
6F
100
AcDbEntity
  8
_2-E_文字
  6
Continuous
 62
     4
100
AcDbLine
 10
268.8049883726447
 20
101.6060606060606
 30
0.0
 11
240.9871855345978
 21
101.6060606060606
 31
0.0
  0
LINE
  5
382
330
6F
100
AcDbEntity
  8
_2-E_文字
  6
Continuous
 62
     4
100
AcDbLine
 10
240.9871855345978
 20
101.6060606060606
 30
0.0
 11
240.9871855345978
 21
97.60606060606063
 31
0.0
  0
LINE
  5
383
330
6F
100
AcDbEntity
  8
_2-E_文字
  6
Continuous
 62
     4
100
AcDbLine
 10
240.9871855345978
 20
97.60606060606063
 30
0.0
 11
268.8049883726447
 21
97.60606060606063
 31
0.0
  0
LINE
  5
384
330
6F
100
AcDbEntity
  8
_2-6_建具
  6
Continuous
 62
     4
100
AcDbLine
 10
106.5763655641281
 20
201.2102943643073
 30
0.0
 11
106.5763655641281
 21
165.2102943643073
 31
0.0
  0
LINE
  5
385
330
6F
100
AcDbEntity
  8
_2-6_建具
  6
Continuous
 62
     4
100
AcDbLine
 10
107.1763655641281
 20
201.2102943643073
 30
0.0
 11
107.1763655641281
 21
165.2102943643073
 31
0.0
  0
LINE
  5
386
330
6F
100
AcDbEntity
  8
_2-6_建具
  6
Continuous
 62
     4
100
AcDbLine
 10
107.7763655641282
 20
201.2102943643073
 30
0.0
 11
107.7763655641282
 21
165.2102943643073
 31
0.0
  0
LINE
  5
387
330
6F
100
AcDbEntity
  8
_2-E_文字
  6
Continuous
 62
     4
100
AcDbLine
 10
79.48178940340927
 20
239.3396554247073
 30
0.0
 11
87.52473848129096
 21
269.356350026051
 31
0.0
  0
CIRCLE
  5
388
330
6F
100
AcDbEntity
  8
_2-E_文字
 62
     4
100
AcDbCircle
 10
79.48178940340927
 20
239.3396554247073
 30
0.0
 40
0.4
  0
LINE
  5
389
330
6F
100
AcDbEntity
  8
_2-E_文字
  6
Continuous
 62
     4
100
AcDbLine
 10
87.52473848129096
 20
269.356350026051
 30
0.0
 11
90.20834717715395
 21
269.356350026051
 31
0.0
  0
LINE
  5
38A
330
6F
100
AcDbEntity
  8
_2-E_文字
  6
Continuous
 62
     4
100
AcDbLine
 10
84.92394003861798
 20
237.1312464712892
 30
0.0
 11
91.83463419467905
 21
262.9223081772784
 31
0.0
  0
LINE
  5
38B
330
6F
100
AcDbEntity
  8
_2-E_文字
  6
Continuous
 62
     4
100
AcDbLine
 10
94.54629333565369
 20
262.9223081772784
 30
0.0
 11
91.83463419467905
 21
262.9223081772784
 31
0.0
  0
CIRCLE
  5
38C
330
6F
100
AcDbEntity
  8
_2-E_文字
 62
     4
100
AcDbCircle
 10
84.92394003861798
 20
237.1312464712892
 30
0.0
 40
0.4
  0
LINE
  5
38D
330
6F
100
AcDbEntity
  8
_2-4_仕上げ
  6
Continuous
 62
     5
100
AcDbLine
 10
258.7763655641284
 20
154.4102943643073
 30
0.0
 11
184.6422079350892
 21
154.4102943643073
 31
0.0
  0
LINE
  5
38E
330
6F
100
AcDbEntity
  8
_2-4_仕上げ
  6
Continuous
 62
     5
100
AcDbLine
 10
277.9763655641281
 20
205.4261970955232
 30
0.0
 11
277.4839279512944
 21
204.3318912893306
 31
0.0
  0
LINE
  5
38F
330
6F
100
AcDbEntity
  8
_2-4_仕上げ
  6
Continuous
 62
     5
100
AcDbLine
 10
184.7763655641282
 20
253.3102943707425
 30
0.0
 11
184.7763655641282
 21
240.88875533339
 31
0.0
  0
LINE
  5
390
330
6F
100
AcDbEntity
  8
_2-4_仕上げ
  6
Continuous
 62
     5
100
AcDbLine
 10
31.97636556412857
 20
209.2102943643272
 30
0.0
 11
48.67636556412828
 21
209.2102943643272
 31
0.0
  0
LINE
  5
391
330
6F
100
AcDbEntity
  8
_2-4_仕上げ
  6
Continuous
 62
     5
100
AcDbLine
 10
12.7763655641283
 20
205.4261970955232
 30
0.0
 11
48.52636556412818
 21
221.5136970970581
 31
0.0
  0
LINE
  5
392
330
6F
100
AcDbEntity
  8
_2-4_仕上げ
  6
Continuous
 62
     5
100
AcDbLine
 10
12.7763655641283
 20
205.4261970955232
 30
0.0
 11
13.26880317696197
 21
204.3318912893306
 31
0.0
  0
LINE
  5
393
330
6F
100
AcDbEntity
  8
_2-4_仕上げ
  6
Continuous
 62
     5
100
AcDbLine
 10
80.32636556412823
 20
240.3977451509461
 30
0.0
 11
80.32636556412823
 21
237.2228435776686
 31
0.0
  0
LINE
  5
394
330
6F
100
AcDbEntity
  8
_2-4_仕上げ
  6
Continuous
 62
     5
100
AcDbLine
 10
76.72636556412823
 20
240.3977451509461
 30
0.0
 11
76.72636556412823
 21
237.2228435776686
 31
0.0
  0
ARC
  5
395
330
6F
100
AcDbEntity
  8
_2-4_仕上げ
  6
Continuous
 62
     5
100
AcDbCircle
 10
78.52636556412824
 20
238.8102943643074
 30
0.0
 40
2.399999999999999
100
AcDbArc
 50
41.40962210927165
 51
138.5903778907283
  0
ARC
  5
396
330
6F
100
AcDbEntity
  8
_2-4_仕上げ
  6
DASHED1
 62
     5
100
AcDbCircle
 10
78.52636556412824
 20
238.8102943643074
 30
0.0
 40
2.399999999999999
100
AcDbArc
 50
221.4096221092716
 51
318.5903778907284
  0
LINE
  5
397
330
6F
100
AcDbEntity
  8
_2-4_仕上げ
  6
Continuous
 62
     5
100
AcDbLine
 10
79.72636556412822
 20
253.3102943707425
 30
0.0
 11
79.72636556412822
 21
240.88875533339
 31
0.0
  0
LINE
  5
398
330
6F
100
AcDbEntity
  8
_2-4_仕上げ
  6
Continuous
 62
     5
100
AcDbLine
 10
77.32636556412822
 20
253.3102943707425
 30
0.0
 11
77.32636556412822
 21
240.88875533339
 31
0.0
  0
LINE
  5
399
330
6F
100
AcDbEntity
  8
_2-4_仕上げ
  6
Continuous
 62
     5
100
AcDbLine
 10
108.9763655641281
 20
240.3977451509461
 30
0.0
 11
108.9763655641281
 21
237.2228435776686
 31
0.0
  0
LINE
  5
39A
330
6F
100
AcDbEntity
  8
_2-4_仕上げ
  6
Continuous
 62
     5
100
AcDbLine
 10
105.3763655641281
 20
240.3977451509461
 30
0.0
 11
105.3763655641281
 21
237.2228435776686
 31
0.0
  0
ARC
  5
39B
330
6F
100
AcDbEntity
  8
_2-4_仕上げ
  6
Continuous
 62
     5
100
AcDbCircle
 10
107.1763655641281
 20
238.8102943643074
 30
0.0
 40
2.399999999999999
100
AcDbArc
 50
41.40962210927165
 51
138.5903778907283
  0
ARC
  5
39C
330
6F
100
AcDbEntity
  8
_2-4_仕上げ
  6
DASHED1
 62
     5
100
AcDbCircle
 10
107.1763655641281
 20
238.8102943643074
 30
0.0
 40
2.399999999999999
100
AcDbArc
 50
221.4096221092716
 51
318.5903778907284
  0
LINE
  5
39D
330
6F
100
AcDbEntity
  8
_2-4_仕上げ
  6
Continuous
 62
     5
100
AcDbLine
 10
108.3763655641281
 20
253.3102943707425
 30
0.0
 11
108.3763655641281
 21
240.88875533339
 31
0.0
  0
LINE
  5
39E
330
6F
100
AcDbEntity
  8
_2-4_仕上げ
  6
Continuous
 62
     5
100
AcDbLine
 10
105.9763655641281
 20
253.3102943707425
 30
0.0
 11
105.9763655641281
 21
240.88875533339
 31
0.0
  0
LINE
  5
39F
330
6F
100
AcDbEntity
  8
_2-4_仕上げ
  6
Continuous
 62
     5
100
AcDbLine
 10
147.1763655641282
 20
240.3977451509461
 30
0.0
 11
147.1763655641282
 21
237.2228435776686
 31
0.0
  0
LINE
  5
3A0
330
6F
100
AcDbEntity
  8
_2-4_仕上げ
  6
Continuous
 62
     5
100
AcDbLine
 10
143.5763655641282
 20
240.3977451509461
 30
0.0
 11
143.5763655641282
 21
237.2228435776686
 31
0.0
  0
ARC
  5
3A1
330
6F
100
AcDbEntity
  8
_2-4_仕上げ
  6
Continuous
 62
     5
100
AcDbCircle
 10
145.3763655641282
 20
238.8102943643074
 30
0.0
 40
2.399999999999999
100
AcDbArc
 50
41.40962210927165
 51
138.5903778907283
  0
ARC
  5
3A2
330
6F
100
AcDbEntity
  8
_2-4_仕上げ
  6
DASHED1
 62
     5
100
AcDbCircle
 10
145.3763655641282
 20
238.8102943643074
 30
0.0
 40
2.399999999999999
100
AcDbArc
 50
221.4096221092716
 51
318.5903778907284
  0
LINE
  5
3A3
330
6F
100
AcDbEntity
  8
_2-4_仕上げ
  6
Continuous
 62
     5
100
AcDbLine
 10
146.5763655641282
 20
253.3102943707425
 30
0.0
 11
146.5763655641282
 21
240.88875533339
 31
0.0
  0
LINE
  5
3A4
330
6F
100
AcDbEntity
  8
_2-4_仕上げ
  6
Continuous
 62
     5
100
AcDbLine
 10
144.1763655641282
 20
253.3102943707425
 30
0.0
 11
144.1763655641282
 21
240.88875533339
 31
0.0
  0
LINE
  5
3A5
330
6F
100
AcDbEntity
  8
_2-4_仕上げ
  6
Continuous
 62
     5
100
AcDbLine
 10
210.4263655641282
 20
240.3977451509461
 30
0.0
 11
210.4263655641282
 21
237.2228435776686
 31
0.0
  0
LINE
  5
3A6
330
6F
100
AcDbEntity
  8
_2-4_仕上げ
  6
Continuous
 62
     5
100
AcDbLine
 10
214.0263655641282
 20
240.3977451509461
 30
0.0
 11
214.0263655641282
 21
237.2228435776686
 31
0.0
  0
ARC
  5
3A7
330
6F
100
AcDbEntity
  8
_2-4_仕上げ
  6
Continuous
 62
     5
100
AcDbCircle
 10
212.2263655641281
 20
238.8102943643074
 30
0.0
 40
2.399999999999999
100
AcDbArc
 50
41.40962210927165
 51
138.5903778907283
  0
ARC
  5
3A8
330
6F
100
AcDbEntity
  8
_2-4_仕上げ
  6
DASHED1
 62
     5
100
AcDbCircle
 10
212.2263655641281
 20
238.8102943643074
 30
0.0
 40
2.399999999999999
100
AcDbArc
 50
221.4096221092716
 51
318.5903778907284
  0
LINE
  5
3A9
330
6F
100
AcDbEntity
  8
_2-4_仕上げ
  6
Continuous
 62
     5
100
AcDbLine
 10
211.0263655641281
 20
253.3102943707425
 30
0.0
 11
211.0263655641281
 21
240.88875533339
 31
0.0
  0
LINE
  5
3AA
330
6F
100
AcDbEntity
  8
_2-4_仕上げ
  6
Continuous
 62
     5
100
AcDbLine
 10
213.4263655641281
 20
253.3102943707425
 30
0.0
 11
213.4263655641281
 21
240.88875533339
 31
0.0
  0
LINE
  5
3AB
330
6F
100
AcDbEntity
  8
_2-4_仕上げ
  6
Continuous
 62
     5
100
AcDbLine
 10
181.7763655641283
 20
240.3977451509461
 30
0.0
 11
181.7763655641283
 21
237.2228435776686
 31
0.0
  0
LINE
  5
3AC
330
6F
100
AcDbEntity
  8
_2-4_仕上げ
  6
Continuous
 62
     5
100
AcDbLine
 10
185.3763655641282
 20
240.3977451509461
 30
0.0
 11
185.3763655641282
 21
237.2228435776686
 31
0.0
  0
ARC
  5
3AD
330
6F
100
AcDbEntity
  8
_2-4_仕上げ
  6
Continuous
 62
     5
100
AcDbCircle
 10
183.5763655641282
 20
238.8102943643074
 30
0.0
 40
2.399999999999999
100
AcDbArc
 50
41.40962210927165
 51
138.5903778907283
  0
ARC
  5
3AE
330
6F
100
AcDbEntity
  8
_2-4_仕上げ
  6
DASHED1
 62
     5
100
AcDbCircle
 10
183.5763655641282
 20
238.8102943643074
 30
0.0
 40
2.399999999999999
100
AcDbArc
 50
221.4096221092716
 51
318.5903778907284
  0
LINE
  5
3AF
330
6F
100
AcDbEntity
  8
_2-4_仕上げ
  6
Continuous
 62
     5
100
AcDbLine
 10
182.3763655641282
 20
253.3102943707425
 30
0.0
 11
182.3763655641282
 21
240.88875533339
 31
0.0
  0
LINE
  5
3B0
330
6F
100
AcDbEntity
  8
_2-4_仕上げ
  6
Continuous
 62
     5
100
AcDbLine
 10
277.9763655641281
 20
205.4261970955232
 30
0.0
 11
242.2263655641283
 21
221.5136970970581
 31
0.0
  0
LINE
  5
3B1
330
6F
100
AcDbEntity
  8
_2-4_仕上げ
  6
Continuous
 62
     5
100
AcDbLine
 10
277.9763655641281
 20
205.4261970955232
 30
0.0
 11
277.4839279512944
 21
204.3318912893306
 31
0.0
  0
LINE
  5
3B2
330
6F
100
AcDbEntity
  8
_2-4_仕上げ
  6
Continuous
 62
     5
100
AcDbLine
 10
258.2410735068226
 20
197.6046912574276
 30
0.0
 11
258.2410735068226
 21
197.6082271306276
 31
0.0
  0
LINE
  5
3B3
330
6F
100
AcDbEntity
  8
_2-4_仕上げ
  6
Continuous
 62
     5
100
AcDbLine
 10
105.1763655641281
 20
154.4102943643073
 30
0.0
 11
109.1763655641281
 21
154.4102943643073
 31
0.0
  0
LINE
  5
3B4
330
6F
100
AcDbEntity
  8
_2-4_仕上げ
  6
Continuous
 62
     5
100
AcDbLine
 10
109.1763655641281
 20
154.4102943643073
 30
0.0
 11
109.1763655641281
 21
153.2102943643073
 31
0.0
  0
LINE
  5
3B5
330
6F
100
AcDbEntity
  8
_2-4_仕上げ
  6
Continuous
 62
     5
100
AcDbLine
 10
109.1763655641281
 20
153.2102943643073
 30
0.0
 11
105.1763655641281
 21
153.2102943643073
 31
0.0
  0
LINE
  5
3B6
330
6F
100
AcDbEntity
  8
_2-4_仕上げ
  6
Continuous
 62
     5
100
AcDbLine
 10
105.1763655641281
 20
153.2102943643073
 30
0.0
 11
105.1763655641281
 21
154.4102943643073
 31
0.0
  0
LINE
  5
3B7
330
6F
100
AcDbEntity
  8
_2-4_仕上げ
  6
Continuous
 62
     5
100
AcDbLine
 10
103.1105147348157
 20
153.2463487079851
 30
0.0
 11
104.1011734310498
 21
154.8314026219596
 31
0.0
  0
LINE
  5
3B8
330
6F
100
AcDbEntity
  8
_2-4_仕上げ
  6
Continuous
 62
     5
100
AcDbLine
 10
104.1011734310498
 20
154.8314026219596
 30
0.0
 11
104.8276564749548
 21
155.2276661004532
 31
0.0
  0
LINE
  5
3B9
330
6F
100
AcDbEntity
  8
_2-4_仕上げ
  6
Continuous
 62
     5
100
AcDbLine
 10
110.2515576972065
 20
154.8314026219596
 30
0.0
 11
109.5250746533015
 21
155.2276661004532
 31
0.0
  0
LINE
  5
3BA
330
6F
100
AcDbEntity
  8
_2-4_仕上げ
  6
Continuous
 62
     5
100
AcDbLine
 10
111.2422163934406
 20
153.2463487079851
 30
0.0
 11
110.2515576972065
 21
154.8314026219596
 31
0.0
  0
LINE
  5
3BB
330
6F
100
AcDbEntity
  8
_2-4_仕上げ
  6
Continuous
 62
     5
100
AcDbLine
 10
104.8276564749548
 20
155.2276661004532
 30
0.0
 11
106.2763655641282
 21
155.2370350887222
 31
0.0
  0
LINE
  5
3BC
330
6F
100
AcDbEntity
  8
_2-4_仕上げ
  6
Continuous
 62
     5
100
AcDbLine
 10
106.2763655641282
 20
160.7102943643073
 30
0.0
 11
106.2763655641282
 21
154.4102943643073
 31
0.0
  0
LINE
  5
3BD
330
6F
100
AcDbEntity
  8
_2-4_仕上げ
  6
Continuous
 62
     5
100
AcDbLine
 10
109.5250746533015
 20
155.2276661004532
 30
0.0
 11
108.0763655641281
 21
155.2370350887222
 31
0.0
  0
LINE
  5
3BE
330
6F
100
AcDbEntity
  8
_2-4_仕上げ
  6
Continuous
 62
     5
100
AcDbLine
 10
108.0763655641281
 20
160.7102943643073
 30
0.0
 11
108.0763655641281
 21
154.4102943643073
 31
0.0
  0
LINE
  5
3BF
330
6F
100
AcDbEntity
  8
_2-4_仕上げ
  6
Continuous
 62
     5
100
AcDbLine
 10
124.276365564128
 20
154.4102943643073
 30
0.0
 11
128.276365564128
 21
154.4102943643073
 31
0.0
  0
LINE
  5
3C0
330
6F
100
AcDbEntity
  8
_2-4_仕上げ
  6
Continuous
 62
     5
100
AcDbLine
 10
128.276365564128
 20
154.4102943643073
 30
0.0
 11
128.276365564128
 21
153.2102943643073
 31
0.0
  0
LINE
  5
3C1
330
6F
100
AcDbEntity
  8
_2-4_仕上げ
  6
Continuous
 62
     5
100
AcDbLine
 10
128.276365564128
 20
153.2102943643073
 30
0.0
 11
124.276365564128
 21
153.2102943643073
 31
0.0
  0
LINE
  5
3C2
330
6F
100
AcDbEntity
  8
_2-4_仕上げ
  6
Continuous
 62
     5
100
AcDbLine
 10
124.276365564128
 20
153.2102943643073
 30
0.0
 11
124.276365564128
 21
154.4102943643073
 31
0.0
  0
LINE
  5
3C3
330
6F
100
AcDbEntity
  8
_2-4_仕上げ
  6
Continuous
 62
     5
100
AcDbLine
 10
143.3763655641279
 20
154.4102943643073
 30
0.0
 11
147.3763655641279
 21
154.4102943643073
 31
0.0
  0
LINE
  5
3C4
330
6F
100
AcDbEntity
  8
_2-4_仕上げ
  6
Continuous
 62
     5
100
AcDbLine
 10
147.3763655641279
 20
154.4102943643073
 30
0.0
 11
147.3763655641279
 21
153.2102943643073
 31
0.0
  0
LINE
  5
3C5
330
6F
100
AcDbEntity
  8
_2-4_仕上げ
  6
Continuous
 62
     5
100
AcDbLine
 10
147.3763655641279
 20
153.2102943643073
 30
0.0
 11
143.3763655641279
 21
153.2102943643073
 31
0.0
  0
LINE
  5
3C6
330
6F
100
AcDbEntity
  8
_2-4_仕上げ
  6
Continuous
 62
     5
100
AcDbLine
 10
143.3763655641279
 20
153.2102943643073
 30
0.0
 11
143.3763655641279
 21
154.4102943643073
 31
0.0
  0
LINE
  5
3C7
330
6F
100
AcDbEntity
  8
_2-4_仕上げ
  6
Continuous
 62
     5
100
AcDbLine
 10
125.3763655641281
 20
154.4102943643073
 30
0.0
 11
125.3763655641281
 21
161.6102943643072
 31
0.0
  0
LINE
  5
3C8
330
6F
100
AcDbEntity
  8
_2-4_仕上げ
  6
Continuous
 62
     5
100
AcDbLine
 10
127.176365564128
 20
154.4102943643073
 30
0.0
 11
127.176365564128
 21
161.6102943643072
 31
0.0
  0
LINE
  5
3C9
330
6F
100
AcDbEntity
  8
_2-4_仕上げ
  6
Continuous
 62
     5
100
AcDbLine
 10
144.476365564128
 20
154.4102943643073
 30
0.0
 11
144.476365564128
 21
161.6102943643072
 31
0.0
  0
LINE
  5
3CA
330
6F
100
AcDbEntity
  8
_2-4_仕上げ
  6
Continuous
 62
     5
100
AcDbLine
 10
146.2763655641279
 20
154.4102943643073
 30
0.0
 11
146.2763655641279
 21
161.6102943643072
 31
0.0
  0
LINE
  5
3CB
330
6F
100
AcDbEntity
  8
_2-4_仕上げ
  6
Continuous
 62
     5
100
AcDbLine
 10
179.5105147348158
 20
153.2463487079851
 30
0.0
 11
180.5011734310499
 21
154.8314026219596
 31
0.0
  0
LINE
  5
3CC
330
6F
100
AcDbEntity
  8
_2-4_仕上げ
  6
Continuous
 62
     5
100
AcDbLine
 10
180.5011734310499
 20
154.8314026219596
 30
0.0
 11
181.2276564749549
 21
155.2276661004532
 31
0.0
  0
LINE
  5
3CD
330
6F
100
AcDbEntity
  8
_2-4_仕上げ
  6
Continuous
 62
     5
100
AcDbLine
 10
162.4763655641282
 20
154.4102943643073
 30
0.0
 11
166.4763655641282
 21
154.4102943643073
 31
0.0
  0
LINE
  5
3CE
330
6F
100
AcDbEntity
  8
_2-4_仕上げ
  6
Continuous
 62
     5
100
AcDbLine
 10
166.4763655641282
 20
154.4102943643073
 30
0.0
 11
166.4763655641282
 21
153.2102943643073
 31
0.0
  0
LINE
  5
3CF
330
6F
100
AcDbEntity
  8
_2-4_仕上げ
  6
Continuous
 62
     5
100
AcDbLine
 10
166.4763655641282
 20
153.2102943643073
 30
0.0
 11
162.4763655641282
 21
153.2102943643073
 31
0.0
  0
LINE
  5
3D0
330
6F
100
AcDbEntity
  8
_2-4_仕上げ
  6
Continuous
 62
     5
100
AcDbLine
 10
162.4763655641282
 20
153.2102943643073
 30
0.0
 11
162.4763655641282
 21
154.4102943643073
 31
0.0
  0
LINE
  5
3D1
330
6F
100
AcDbEntity
  8
_2-4_仕上げ
  6
Continuous
 62
     5
100
AcDbLine
 10
163.5763655641283
 20
154.4102943643073
 30
0.0
 11
163.5763655641283
 21
161.6102943643072
 31
0.0
  0
LINE
  5
3D2
330
6F
100
AcDbEntity
  8
_2-4_仕上げ
  6
Continuous
 62
     5
100
AcDbLine
 10
165.3763655641282
 20
154.4102943643073
 30
0.0
 11
165.3763655641282
 21
161.6102943643072
 31
0.0
  0
LINE
  5
3D3
330
6F
100
AcDbEntity
  8
_2-4_仕上げ
  6
DASHED1
 62
     5
100
AcDbLine
 10
48.52298210556822
 20
215.2228435776685
 30
0.0
 11
48.52298210556822
 21
215.2228435776685
 31
0.0
  0
LINE
  5
3D4
330
6F
100
AcDbEntity
  8
_2-4_仕上げ
  6
DASHED1
 62
     5
100
AcDbLine
 10
48.52298210556822
 20
215.2228435776685
 30
0.0
 11
48.75080464751889
 21
214.9343938022996
 31
0.0
  0
LINE
  5
3D5
330
6F
100
AcDbEntity
  8
_2-4_仕上げ
  6
DASHED1
 62
     5
100
AcDbLine
 10
48.75080464751889
 20
214.9343938022996
 30
0.0
 11
49.01282678835944
 21
214.7029423162559
 31
0.0
  0
LINE
  5
3D6
330
6F
100
AcDbEntity
  8
_2-4_仕上げ
  6
DASHED1
 62
     5
100
AcDbLine
 10
49.01282678835944
 20
214.7029423162559
 30
0.0
 11
49.30108711793
 21
214.5355216558206
 31
0.0
  0
LINE
  5
3D7
330
6F
100
AcDbEntity
  8
_2-4_仕上げ
  6
DASHED1
 62
     5
100
AcDbLine
 10
49.30108711793
 20
214.5355216558206
 30
0.0
 11
49.60682699198335
 21
214.4372188130421
 31
0.0
  0
LINE
  5
3D8
330
6F
100
AcDbEntity
  8
_2-4_仕上げ
  6
DASHED1
 62
     5
100
AcDbLine
 10
49.60682699198335
 20
214.4372188130421
 30
0.0
 11
49.92075665915823
 21
214.4110206700546
 31
0.0
  0
LINE
  5
3D9
330
6F
100
AcDbEntity
  8
_2-4_仕上げ
  6
DASHED1
 62
     5
100
AcDbLine
 10
49.92075665915823
 20
214.4110206700546
 30
0.0
 11
50.23333752537362
 21
214.457723244176
 31
0.0
  0
LINE
  5
3DA
330
6F
100
AcDbEntity
  8
_2-4_仕上げ
  6
DASHED1
 62
     5
100
AcDbLine
 10
50.23333752537362
 20
214.457723244176
 30
0.0
 11
50.53507197918308
 21
214.575907501324
 31
0.0
  0
LINE
  5
3DB
330
6F
100
AcDbEntity
  8
_2-4_仕上げ
  6
DASHED1
 62
     5
100
AcDbLine
 10
50.53507197918308
 20
214.575907501324
 30
0.0
 11
50.81679197189263
 21
214.7619824726496
 31
0.0
  0
LINE
  5
3DC
330
6F
100
AcDbEntity
  8
_2-4_仕上げ
  6
DASHED1
 62
     5
100
AcDbLine
 10
50.81679197189263
 20
214.7619824726496
 30
0.0
 11
51.06993758408098
 21
215.0102943643073
 31
0.0
  0
LINE
  5
3DD
330
6F
100
AcDbEntity
  8
_2-4_仕上げ
  6
DASHED1
 62
     5
100
AcDbLine
 10
51.06993758408098
 20
215.0102943643073
 30
0.0
 11
51.22974902268818
 21
215.2228435776685
 31
0.0
  0
LINE
  5
3DE
330
6F
100
AcDbEntity
  8
_2-4_仕上げ
  6
DASHED1
 62
     5
100
AcDbLine
 10
51.22974902268822
 20
218.3977451509461
 30
0.0
 11
51.22974902268822
 21
215.2228435776685
 31
0.0
  0
LINE
  5
3DF
330
6F
100
AcDbEntity
  8
_2-4_仕上げ
  6
DASHED1
 62
     5
100
AcDbLine
 10
51.22974902268818
 20
218.3977451509461
 30
0.0
 11
51.22974902268818
 21
218.3977451509461
 31
0.0
  0
LINE
  5
3E0
330
6F
100
AcDbEntity
  8
_2-4_仕上げ
  6
DASHED1
 62
     5
100
AcDbLine
 10
51.22974902268818
 20
218.3977451509461
 30
0.0
 11
51.00192648073752
 21
218.686194926315
 31
0.0
  0
LINE
  5
3E1
330
6F
100
AcDbEntity
  8
_2-4_仕上げ
  6
DASHED1
 62
     5
100
AcDbLine
 10
51.00192648073752
 20
218.686194926315
 30
0.0
 11
50.73990433989697
 21
218.9176464123587
 31
0.0
  0
LINE
  5
3E2
330
6F
100
AcDbEntity
  8
_2-4_仕上げ
  6
DASHED1
 62
     5
100
AcDbLine
 10
50.73990433989697
 20
218.9176464123587
 30
0.0
 11
50.4516440103264
 21
219.085067072794
 31
0.0
  0
LINE
  5
3E3
330
6F
100
AcDbEntity
  8
_2-4_仕上げ
  6
DASHED1
 62
     5
100
AcDbLine
 10
50.4516440103264
 20
219.085067072794
 30
0.0
 11
50.14590413627305
 21
219.1833699155726
 31
0.0
  0
LINE
  5
3E4
330
6F
100
AcDbEntity
  8
_2-4_仕上げ
  6
DASHED1
 62
     5
100
AcDbLine
 10
50.14590413627305
 20
219.1833699155726
 30
0.0
 11
49.83197446909817
 21
219.20956805856
 31
0.0
  0
LINE
  5
3E5
330
6F
100
AcDbEntity
  8
_2-4_仕上げ
  6
DASHED1
 62
     5
100
AcDbLine
 10
49.83197446909817
 20
219.20956805856
 30
0.0
 11
49.51939360288278
 21
219.1628654844387
 31
0.0
  0
LINE
  5
3E6
330
6F
100
AcDbEntity
  8
_2-4_仕上げ
  6
DASHED1
 62
     5
100
AcDbLine
 10
49.51939360288278
 20
219.1628654844387
 30
0.0
 11
49.21765914907332
 21
219.0446812272906
 31
0.0
  0
LINE
  5
3E7
330
6F
100
AcDbEntity
  8
_2-4_仕上げ
  6
DASHED1
 62
     5
100
AcDbLine
 10
49.21765914907332
 20
219.0446812272906
 30
0.0
 11
48.93593915636378
 21
218.858606255965
 31
0.0
  0
LINE
  5
3E8
330
6F
100
AcDbEntity
  8
_2-4_仕上げ
  6
DASHED1
 62
     5
100
AcDbLine
 10
48.93593915636378
 20
218.858606255965
 30
0.0
 11
48.68279354417543
 21
218.6102943643073
 31
0.0
  0
LINE
  5
3E9
330
6F
100
AcDbEntity
  8
_2-4_仕上げ
  6
DASHED1
 62
     5
100
AcDbLine
 10
48.68279354417543
 20
218.6102943643073
 30
0.0
 11
48.52298210556822
 21
218.3977451509461
 31
0.0
  0
LINE
  5
3EA
330
6F
100
AcDbEntity
  8
_2-4_仕上げ
  6
Continuous
 62
     5
100
AcDbLine
 10
222.8991389219479
 20
210.7053507963316
 30
0.0
 11
205.1205210614032
 21
210.9324051610361
 31
0.0
  0
LINE
  5
3EB
330
6F
100
AcDbEntity
  8
_2-4_仕上げ
  6
Continuous
 62
     5
100
AcDbLine
 10
192.3558908787592
 20
210.8763215464906
 30
0.0
 11
205.1205210614032
 21
210.9324051610361
 31
0.0
  0
LINE
  5
3EC
330
6F
100
AcDbEntity
  8
_2-4_仕上げ
  6
Continuous
 62
     5
100
AcDbLine
 10
185.6763655641282
 20
210.6266767327674
 30
0.0
 11
192.3558908787592
 21
210.8763215464906
 31
0.0
  0
LINE
  5
3ED
330
6F
100
AcDbEntity
  8
_2-4_仕上げ
  6
Continuous
 62
     5
100
AcDbLine
 10
222.9386099610663
 20
205.2694200284246
 30
0.0
 11
215.6552828691877
 21
205.1940380106154
 31
0.0
  0
LINE
  5
3EE
330
6F
100
AcDbEntity
  8
_2-4_仕上げ
  6
Continuous
 62
     5
100
AcDbLine
 10
204.0582494709324
 20
205.5961263140133
 30
0.0
 11
215.6552828691877
 21
205.1940380106154
 31
0.0
  0
LINE
  5
3EF
330
6F
100
AcDbEntity
  8
_2-4_仕上げ
  6
Continuous
 62
     5
100
AcDbLine
 10
191.2936192882884
 20
205.5400426994678
 30
0.0
 11
204.0582494709324
 21
205.5961263140133
 31
0.0
  0
LINE
  5
3F0
330
6F
100
AcDbEntity
  8
_2-4_仕上げ
  6
Continuous
 62
     5
100
AcDbLine
 10
185.7159537309084
 20
205.0368286437428
 30
0.0
 11
191.2936192882884
 21
205.5400426994678
 31
0.0
  0
LINE
  5
3F1
330
6F
100
AcDbEntity
  8
_2-4_仕上げ
  6
Continuous
 62
     5
100
AcDbLine
 10
222.9386099610663
 20
205.2694200284246
 30
0.0
 11
239.3163557575111
 21
205.3854097515345
 31
0.0
  0
LINE
  5
3F2
330
6F
100
AcDbEntity
  8
_2-4_仕上げ
  6
Continuous
 62
     5
100
AcDbLine
 10
258.7763655641284
 20
204.3314411678344
 30
0.0
 11
258.7763655641284
 21
156.8102943643073
 31
0.0
  0
LINE
  5
3F3
330
6F
100
AcDbEntity
  8
_2-4_仕上げ
  6
Continuous
 62
     5
100
AcDbLine
 10
239.3163557575111
 20
205.3854097515345
 30
0.0
 11
258.9336260594349
 21
204.3227021697513
 31
0.0
  0
LINE
  5
3F4
330
6F
100
AcDbEntity
  8
_2-4_仕上げ
  6
Continuous
 62
     5
100
AcDbLine
 10
263.0075775626893
 20
205.9610563060011
 30
0.0
 11
262.986331632544
 21
208.9609810734665
 31
0.0
  0
LINE
  5
3F5
330
6F
100
AcDbEntity
  8
_2-4_仕上げ
  6
Continuous
 62
     5
100
AcDbLine
 10
262.986331632544
 20
208.9609810734665
 30
0.0
 11
260.978712042367
 21
208.9467628017172
 31
0.0
  0
LINE
  5
3F6
330
6F
100
AcDbEntity
  8
_2-4_仕上げ
  6
Continuous
 62
     5
100
AcDbLine
 10
260.9815452948088
 20
205.9467076328269
 30
0.0
 11
263.0075775626893
 21
205.9610563060011
 31
0.0
  0
LINE
  5
3F7
330
6F
100
AcDbEntity
  8
_2-4_仕上げ
  6
Continuous
 62
     5
100
AcDbLine
 10
261.1763655641284
 20
209.8102943643072
 30
0.0
 11
261.1763655641284
 21
156.8102943643073
 31
0.0
  0
LINE
  5
3F8
330
6F
100
AcDbEntity
  8
_2-4_仕上げ
  6
Continuous
 62
     5
100
AcDbLine
 10
105.3763655641282
 20
201.2102943643073
 30
0.0
 11
51.22636556412823
 21
201.2102943643073
 31
0.0
  0
LINE
  5
3F9
330
6F
100
AcDbEntity
  8
_2-4_仕上げ
  6
Continuous
 62
     5
100
AcDbLine
 10
105.3763655641282
 20
202.0102943643073
 30
0.0
 11
51.22636556412823
 21
202.0102943643073
 31
0.0
  0
LINE
  5
3FA
330
6F
100
AcDbEntity
  8
_2-4_仕上げ
  6
Continuous
 62
     5
100
AcDbLine
 10
47.8763655641282
 20
154.4102943643073
 30
0.0
 11
51.87636556412821
 21
154.4102943643073
 31
0.0
  0
LINE
  5
3FB
330
6F
100
AcDbEntity
  8
_2-4_仕上げ
  6
Continuous
 62
     5
100
AcDbLine
 10
51.87636556412821
 20
154.4102943643073
 30
0.0
 11
51.87636556412821
 21
153.2102943643073
 31
0.0
  0
LINE
  5
3FC
330
6F
100
AcDbEntity
  8
_2-4_仕上げ
  6
Continuous
 62
     5
100
AcDbLine
 10
51.87636556412821
 20
153.2102943643073
 30
0.0
 11
47.8763655641282
 21
153.2102943643073
 31
0.0
  0
LINE
  5
3FD
330
6F
100
AcDbEntity
  8
_2-4_仕上げ
  6
Continuous
 62
     5
100
AcDbLine
 10
47.8763655641282
 20
153.2102943643073
 30
0.0
 11
47.8763655641282
 21
154.4102943643073
 31
0.0
  0
LINE
  5
3FE
330
6F
100
AcDbEntity
  8
_2-4_仕上げ
  6
Continuous
 62
     5
100
AcDbLine
 10
48.97636556412823
 20
154.4102943643073
 30
0.0
 11
48.97636556412823
 21
160.7102943643073
 31
0.0
  0
LINE
  5
3FF
330
6F
100
AcDbEntity
  8
_2-4_仕上げ
  6
Continuous
 62
     5
100
AcDbLine
 10
50.77636556412818
 20
154.4102943643073
 30
0.0
 11
50.77636556412818
 21
160.7102943643073
 31
0.0
  0
LINE
  5
400
330
6F
100
AcDbEntity
  8
_2-4_仕上げ
  6
Continuous
 62
     5
100
AcDbLine
 10
45.81051473481574
 20
153.2463487079851
 30
0.0
 11
46.80117343104989
 21
154.8314026219596
 31
0.0
  0
LINE
  5
401
330
6F
100
AcDbEntity
  8
_2-4_仕上げ
  6
Continuous
 62
     5
100
AcDbLine
 10
46.80117343104989
 20
154.8314026219596
 30
0.0
 11
47.52765647495488
 21
155.2276661004532
 31
0.0
  0
LINE
  5
402
330
6F
100
AcDbEntity
  8
_2-4_仕上げ
  6
Continuous
 62
     5
100
AcDbLine
 10
47.52765647495488
 20
155.2276661004532
 30
0.0
 11
48.97636556412823
 21
155.2370350887222
 31
0.0
  0
LINE
  5
403
330
6F
100
AcDbEntity
  8
_2-4_仕上げ
  6
Continuous
 62
     5
100
AcDbLine
 10
52.22507465330153
 20
155.2276661004532
 30
0.0
 11
50.77636556412818
 21
155.2370350887222
 31
0.0
  0
LINE
  5
404
330
6F
100
AcDbEntity
  8
_2-4_仕上げ
  6
Continuous
 62
     5
100
AcDbLine
 10
52.95155769720651
 20
154.8314026219596
 30
0.0
 11
52.22507465330153
 21
155.2276661004532
 31
0.0
  0
LINE
  5
405
330
6F
100
AcDbEntity
  8
_2-4_仕上げ
  6
Continuous
 62
     5
100
AcDbLine
 10
53.94221639344067
 20
153.2463487079851
 30
0.0
 11
52.95155769720651
 21
154.8314026219596
 31
0.0
  0
LINE
  5
406
330
6F
100
AcDbEntity
  8
_2-4_仕上げ
  6
Continuous
 62
     5
100
AcDbLine
 10
66.97636556412788
 20
154.4102943643073
 30
0.0
 11
70.97636556412789
 21
154.4102943643073
 31
0.0
  0
LINE
  5
407
330
6F
100
AcDbEntity
  8
_2-4_仕上げ
  6
Continuous
 62
     5
100
AcDbLine
 10
70.97636556412789
 20
154.4102943643073
 30
0.0
 11
70.97636556412789
 21
153.2102943643073
 31
0.0
  0
LINE
  5
408
330
6F
100
AcDbEntity
  8
_2-4_仕上げ
  6
Continuous
 62
     5
100
AcDbLine
 10
70.97636556412789
 20
153.2102943643073
 30
0.0
 11
66.97636556412788
 21
153.2102943643073
 31
0.0
  0
LINE
  5
409
330
6F
100
AcDbEntity
  8
_2-4_仕上げ
  6
Continuous
 62
     5
100
AcDbLine
 10
66.97636556412788
 20
153.2102943643073
 30
0.0
 11
66.97636556412788
 21
154.4102943643073
 31
0.0
  0
LINE
  5
40A
330
6F
100
AcDbEntity
  8
_2-4_仕上げ
  6
Continuous
 62
     5
100
AcDbLine
 10
68.0763655641279
 20
154.4102943643073
 30
0.0
 11
68.0763655641279
 21
161.6102943643072
 31
0.0
  0
LINE
  5
40B
330
6F
100
AcDbEntity
  8
_2-4_仕上げ
  6
Continuous
 62
     5
100
AcDbLine
 10
69.87636556412785
 20
154.4102943643073
 30
0.0
 11
69.87636556412785
 21
161.6102943643072
 31
0.0
  0
LINE
  5
40C
330
6F
100
AcDbEntity
  8
_2-4_仕上げ
  6
Continuous
 62
     5
100
AcDbLine
 10
86.07636556412815
 20
154.4102943643073
 30
0.0
 11
90.07636556412816
 21
154.4102943643073
 31
0.0
  0
LINE
  5
40D
330
6F
100
AcDbEntity
  8
_2-4_仕上げ
  6
Continuous
 62
     5
100
AcDbLine
 10
90.07636556412816
 20
154.4102943643073
 30
0.0
 11
90.07636556412816
 21
153.2102943643073
 31
0.0
  0
LINE
  5
40E
330
6F
100
AcDbEntity
  8
_2-4_仕上げ
  6
Continuous
 62
     5
100
AcDbLine
 10
90.07636556412816
 20
153.2102943643073
 30
0.0
 11
86.07636556412815
 21
153.2102943643073
 31
0.0
  0
LINE
  5
40F
330
6F
100
AcDbEntity
  8
_2-4_仕上げ
  6
Continuous
 62
     5
100
AcDbLine
 10
86.07636556412815
 20
153.2102943643073
 30
0.0
 11
86.07636556412815
 21
154.4102943643073
 31
0.0
  0
LINE
  5
410
330
6F
100
AcDbEntity
  8
_2-4_仕上げ
  6
Continuous
 62
     5
100
AcDbLine
 10
87.17636556412818
 20
154.4102943643073
 30
0.0
 11
87.17636556412818
 21
161.6102943643072
 31
0.0
  0
LINE
  5
411
330
6F
100
AcDbEntity
  8
_2-4_仕上げ
  6
Continuous
 62
     5
100
AcDbLine
 10
88.97636556412813
 20
154.4102943643073
 30
0.0
 11
88.97636556412813
 21
161.6102943643072
 31
0.0
  0
LINE
  5
412
330
6F
100
AcDbEntity
  8
_2-4_仕上げ
  6
Continuous
 62
     5
100
AcDbLine
 10
105.3763655641282
 20
155.2312146728049
 30
0.0
 11
105.3763655641282
 21
161.6102943643072
 31
0.0
  0
LINE
  5
413
330
6F
100
AcDbEntity
  8
_2-4_仕上げ
  6
Continuous
 62
     5
100
AcDbLine
 10
108.9763655641281
 20
155.2312146728049
 30
0.0
 11
108.9763655641281
 21
161.6102943643072
 31
0.0
  0
LINE
  5
414
330
6F
100
AcDbEntity
  8
_2-4_仕上げ
  6
Continuous
 62
     5
100
AcDbLine
 10
182.3763655641282
 20
161.6102943643072
 30
0.0
 11
108.3763655641282
 21
161.6102943643072
 31
0.0
  0
LINE
  5
415
330
6F
100
AcDbEntity
  8
_2-4_仕上げ
  6
Continuous
 62
     5
100
AcDbLine
 10
182.3763655641282
 20
163.7102943643073
 30
0.0
 11
108.3763655641282
 21
163.7102943643073
 31
0.0
  0
LINE
  5
416
330
6F
100
AcDbEntity
  8
_2-4_仕上げ
  6
Continuous
 62
     5
100
AcDbLine
 10
105.9763655641281
 20
161.6102943643072
 30
0.0
 11
51.22636556412823
 21
161.6102943643072
 31
0.0
  0
LINE
  5
417
330
6F
100
AcDbEntity
  8
_2-4_仕上げ
  6
Continuous
 62
     5
100
AcDbLine
 10
48.52636556412818
 20
161.6102943643072
 30
0.0
 11
31.97636556412812
 21
161.6102943643072
 31
0.0
  0
LINE
  5
418
330
6F
100
AcDbEntity
  8
_2-4_仕上げ
  6
Continuous
 62
     5
100
AcDbLine
 10
48.52636556412818
 20
163.7102943643073
 30
0.0
 11
31.97636556412812
 21
163.7102943643073
 31
0.0
  0
LINE
  5
419
330
6F
100
AcDbEntity
  8
_2-4_仕上げ
  6
Continuous
 62
     5
100
AcDbLine
 10
99.07197850705328
 20
163.7102943643073
 30
0.0
 11
51.22636556412823
 21
163.7102943643073
 31
0.0
  0
LINE
  5
41A
330
6F
100
AcDbEntity
  8
_2-4_仕上げ
  6
Continuous
 62
     5
100
AcDbLine
 10
105.9763655641281
 20
163.7102943643073
 30
0.0
 11
102.5527597743952
 21
163.7102943643073
 31
0.0
  0
LINE
  5
41B
330
6F
100
AcDbEntity
  8
_2-4_仕上げ
  6
Continuous
 62
     5
100
AcDbLine
 10
102.5527597743952
 20
163.7102943643073
 30
0.0
 11
99.07197850705328
 21
163.7102943643073
 31
0.0
  0
LINE
  5
41C
330
6F
100
AcDbEntity
  8
_2-4_仕上げ
  6
Continuous
 62
     5
100
AcDbLine
 10
243.2763655641283
 20
210.6500897658031
 30
0.0
 11
258.7793596460307
 21
209.810260926336
 31
0.0
  0
LINE
  5
41D
330
6F
100
AcDbEntity
  8
_2-4_仕上げ
  6
Continuous
 62
     5
100
AcDbLine
 10
222.8997905149017
 20
210.7507247871037
 30
0.0
 11
238.4763655641283
 21
210.8610404953469
 31
0.0
  0
LINE
  5
41E
330
6F
100
AcDbEntity
  8
_2-4_仕上げ
  6
Continuous
 62
     5
100
AcDbLine
 10
108.5263655641282
 20
207.2102943643073
 30
0.0
 11
181.4763655641282
 21
207.2102943643073
 31
0.0
  0
LINE
  5
41F
330
6F
100
AcDbEntity
  8
_2-4_仕上げ
  6
Continuous
 62
     5
100
AcDbLine
 10
108.5263655641282
 20
201.2102943643073
 30
0.0
 11
181.4763655641282
 21
201.2102943643073
 31
0.0
  0
LINE
  5
420
330
6F
100
AcDbEntity
  8
_2-4_仕上げ
  6
Continuous
 62
     5
100
AcDbLine
 10
144.0263655641282
 20
201.2102943643073
 30
0.0
 11
144.0263655641282
 21
165.2102943643073
 31
0.0
  0
LINE
  5
421
330
6F
100
AcDbEntity
  8
_2-4_仕上げ
  6
Continuous
 62
     5
100
AcDbLine
 10
146.7263655641282
 20
201.2102943643073
 30
0.0
 11
146.7263655641282
 21
165.2102943643073
 31
0.0
  0
LINE
  5
422
330
6F
100
AcDbEntity
  8
_2-4_仕上げ
  6
Continuous
 62
     5
100
AcDbLine
 10
13.26880317696197
 20
204.3318912893306
 30
0.0
 11
49.8763655641282
 21
220.8052943651273
 31
0.0
  0
LINE
  5
423
330
6F
100
AcDbEntity
  8
_2-4_仕上げ
  6
Continuous
 62
     5
100
AcDbLine
 10
182.3763655641282
 20
164.0102943643073
 30
0.0
 11
51.0763655641282
 21
164.0102943643073
 31
0.0
  0
LINE
  5
424
330
6F
100
AcDbEntity
  8
_2-4_仕上げ
  6
Continuous
 62
     5
100
AcDbLine
 10
239.6763655641283
 20
253.3102943707425
 30
0.0
 11
51.0763655641282
 21
253.3102943707425
 31
0.0
  0
LINE
  5
425
330
6F
100
AcDbEntity
  8
_2-4_仕上げ
  6
Continuous
 62
     5
100
AcDbLine
 10
127.411835134428
 20
232.1528650905266
 30
0.0
 11
139.0088685326833
 21
231.7507767871286
 31
0.0
  0
LINE
  5
426
330
6F
100
AcDbEntity
  8
_2-4_仕上げ
  6
Continuous
 62
     5
100
AcDbLine
 10
114.647204951784
 20
232.0967814759812
 30
0.0
 11
127.411835134428
 21
232.1528650905266
 31
0.0
  0
LINE
  5
427
330
6F
100
AcDbEntity
  8
_2-4_仕上げ
  6
Continuous
 62
     5
100
AcDbLine
 10
115.7094765422549
 20
237.433060323004
 30
0.0
 11
128.4741067248988
 21
237.4891439375493
 31
0.0
  0
LINE
  5
428
330
6F
100
AcDbEntity
  8
_2-4_仕上げ
  6
Continuous
 62
     5
100
AcDbLine
 10
110.3447566670127
 20
237.2325558813188
 30
0.0
 11
115.7094765422549
 21
237.433060323004
 31
0.0
  0
LINE
  5
429
330
6F
100
AcDbEntity
  8
_2-4_仕上げ
  6
Continuous
 62
     5
100
AcDbLine
 10
143.5430968500685
 20
237.5803060972104
 30
0.0
 11
128.4741067248988
 21
237.4891439375493
 31
0.0
  0
LINE
  5
42A
330
6F
100
AcDbEntity
  8
_2-4_仕上げ
  6
Continuous
 62
     5
100
AcDbLine
 10
147.0586115131594
 20
237.5444334986074
 30
0.0
 11
166.6299512276239
 21
237.2068285423164
 31
0.0
  0
LINE
  5
42B
330
6F
100
AcDbEntity
  8
_2-4_仕上げ
  6
Continuous
 62
     5
100
AcDbLine
 10
166.6299512276239
 20
237.2068285423164
 30
0.0
 11
180.3494700651571
 21
236.7324083120493
 31
0.0
  0
LINE
  5
42C
330
6F
100
AcDbEntity
  8
_2-4_仕上げ
  6
Continuous
 62
     5
100
AcDbLine
 10
144.1763655641282
 20
207.2102943643073
 30
0.0
 11
144.1763655641282
 21
231.8042600851242
 31
0.0
  0
LINE
  5
42D
330
6F
100
AcDbEntity
  8
_2-4_仕上げ
  6
Continuous
 62
     5
100
AcDbLine
 10
146.5763655641282
 20
207.2102943643073
 30
0.0
 11
146.5763655641282
 21
231.8281713403024
 31
0.0
  0
LINE
  5
42E
330
6F
100
AcDbEntity
  8
_2-4_仕上げ
  6
Continuous
 62
     5
100
AcDbLine
 10
146.5763655641282
 20
231.8281713403024
 30
0.0
 11
146.5763655641282
 21
231.8290999475195
 31
0.0
  0
LINE
  5
42F
330
6F
100
AcDbEntity
  8
_2-4_仕上げ
  6
Continuous
 62
     5
100
AcDbLine
 10
139.0088685326833
 20
231.7507767871286
 30
0.0
 11
146.5763655641282
 21
231.8290999475195
 31
0.0
  0
LINE
  5
430
330
6F
100
AcDbEntity
  8
_2-4_仕上げ
  6
Continuous
 62
     5
100
AcDbLine
 10
181.4566377532467
 20
231.4514778886879
 30
0.0
 11
181.4566377532467
 21
231.729753811028
 31
0.0
  0
LINE
  5
431
330
6F
100
AcDbEntity
  8
_2-4_仕上げ
  6
Continuous
 62
     5
100
AcDbLine
 10
186.4857735105282
 20
234.3624388434805
 30
0.0
 11
186.4857735105282
 21
230.0919668262632
 31
0.0
  0
LINE
  5
432
330
6F
100
AcDbEntity
  8
_2-4_仕上げ
  6
Continuous
 62
     5
100
AcDbLine
 10
185.5727073442744
 20
230.0919668262632
 30
0.0
 11
185.6763655641282
 21
230.0919668262632
 31
0.0
  0
LINE
  5
433
330
6F
100
AcDbEntity
  8
_2-4_仕上げ
  6
Continuous
 62
     5
100
AcDbLine
 10
185.6763655641282
 20
230.0919668262632
 30
0.0
 11
186.4857735105282
 21
230.0919668262632
 31
0.0
  0
LINE
  5
434
330
6F
100
AcDbEntity
  8
_2-4_仕上げ
  6
Continuous
 62
     5
100
AcDbLine
 10
185.6566377532468
 20
230.0919668262632
 30
0.0
 11
185.6566377532468
 21
232.6885702866473
 31
0.0
  0
LINE
  5
435
330
6F
100
AcDbEntity
  8
_2-4_仕上げ
  6
Continuous
 62
     5
100
AcDbLine
 10
181.4763655641282
 20
155.2292745341659
 30
0.0
 11
181.4763655641282
 21
232.6885702866473
 31
0.0
  0
LINE
  5
436
330
6F
100
AcDbEntity
  8
_2-4_仕上げ
  6
Continuous
 62
     5
100
AcDbLine
 10
185.6566377532468
 20
232.6885702866473
 30
0.0
 11
181.4763655641282
 21
232.6885702866473
 31
0.0
  0
LINE
  5
437
330
6F
100
AcDbEntity
  8
_2-4_仕上げ
  6
Continuous
 62
     5
100
AcDbLine
 10
109.0695393944041
 20
231.8941259813217
 30
0.0
 11
114.647204951784
 21
232.0967814759812
 31
0.0
  0
LINE
  5
438
330
6F
100
AcDbEntity
  8
_2-4_仕上げ
  6
Continuous
 62
     5
100
AcDbLine
 10
105.3763655641282
 20
163.7102943643073
 30
0.0
 11
105.3763655641282
 21
232.989128847713
 31
0.0
  0
LINE
  5
439
330
6F
100
AcDbEntity
  8
_2-4_仕上げ
  6
Continuous
 62
     5
100
AcDbLine
 10
108.9763655641281
 20
163.7102943643073
 30
0.0
 11
108.9763655641281
 21
232.989128847713
 31
0.0
  0
LINE
  5
43A
330
6F
100
AcDbEntity
  8
_2-4_仕上げ
  6
Continuous
 62
     5
100
AcDbLine
 10
108.9763655641281
 20
232.989128847713
 30
0.0
 11
105.3763655641282
 21
232.989128847713
 31
0.0
  0
LINE
  5
43B
330
6F
100
AcDbEntity
  8
_2-4_仕上げ
  6
Continuous
 62
     5
100
AcDbLine
 10
105.3763655641282
 20
231.894125981313
 30
0.0
 11
104.2669576177281
 21
231.894125981313
 31
0.0
  0
LINE
  5
43C
330
6F
100
AcDbEntity
  8
_2-4_仕上げ
  6
Continuous
 62
     5
100
AcDbLine
 10
104.2669576177281
 20
231.894125981313
 30
0.0
 11
104.2669576177281
 21
234.9277704996763
 31
0.0
  0
LINE
  5
43D
330
6F
100
AcDbEntity
  8
_2-4_仕上げ
  6
Continuous
 62
     5
100
AcDbLine
 10
232.2767042922004
 20
238.5409369403522
 30
0.0
 11
223.493568762404
 21
238.6278986782709
 31
0.0
  0
LINE
  5
43E
330
6F
100
AcDbEntity
  8
_2-4_仕上げ
  6
Continuous
 62
     5
100
AcDbLine
 10
232.2767042922004
 20
238.5409369403522
 30
0.0
 11
235.3834098011275
 21
238.5069405820966
 31
0.0
  0
LINE
  5
43F
330
6F
100
AcDbEntity
  8
_2-4_仕上げ
  6
Continuous
 62
     5
100
AcDbLine
 10
235.3834098011275
 20
238.5069405820966
 30
0.0
 11
239.4505017015531
 21
238.5899424576155
 31
0.0
  0
LINE
  5
440
330
6F
100
AcDbEntity
  8
_2-4_仕上げ
  6
Continuous
 62
     5
100
AcDbLine
 10
239.4505017015531
 20
238.5899424576155
 30
0.0
 11
242.2263655641283
 21
238.5899424576155
 31
0.0
  0
LINE
  5
441
330
6F
100
AcDbEntity
  8
_2-4_仕上げ
  6
Continuous
 62
     5
100
AcDbLine
 10
223.493568762404
 20
238.6278986782709
 30
0.0
 11
214.0263655641282
 21
238.7789710697328
 31
0.0
  0
LINE
  5
442
330
6F
100
AcDbEntity
  8
_2-4_仕上げ
  6
Continuous
 62
     5
100
AcDbLine
 10
234.1097830447828
 20
234.0501421666846
 30
0.0
 11
214.02636556413
 21
234.7476096465815
 31
0.0
  0
LINE
  5
443
330
6F
100
AcDbEntity
  8
_2-4_仕上げ
  6
Continuous
 62
     5
100
AcDbLine
 10
207.7939990951569
 20
234.8470623030013
 30
0.0
 11
214.0263655641296
 21
234.7476096465815
 31
0.0
  0
LINE
  5
444
330
6F
100
AcDbEntity
  8
_2-4_仕上げ
  6
Continuous
 62
     5
100
AcDbLine
 10
196.8074856494024
 20
235.0135246279369
 30
0.0
 11
207.7939990951569
 21
234.8470623030013
 31
0.0
  0
LINE
  5
445
330
6F
100
AcDbEntity
  8
_2-4_仕上げ
  6
Continuous
 62
     5
100
AcDbLine
 10
181.7763655641283
 20
239.2154355538216
 30
0.0
 11
180.4071424451937
 21
239.2154355538216
 31
0.0
  0
LINE
  5
446
330
6F
100
AcDbEntity
  8
_2-4_仕上げ
  6
Continuous
 62
     5
100
AcDbLine
 10
234.1097830447828
 20
234.0501421666846
 30
0.0
 11
235.0938203846072
 21
233.8482883533873
 31
0.0
  0
LINE
  5
447
330
6F
100
AcDbEntity
  8
_2-4_仕上げ
  6
Continuous
 62
     5
100
AcDbLine
 10
196.8680964820764
 20
239.0439171811507
 30
0.0
 11
185.7146650929436
 21
239.2103863063617
 31
0.0
  0
LINE
  5
448
330
6F
100
AcDbEntity
  8
_2-4_仕上げ
  6
Continuous
 62
     5
100
AcDbLine
 10
207.8566892592269
 20
238.877423351194
 30
0.0
 11
196.8680964820764
 21
239.0439171811507
 31
0.0
  0
LINE
  5
449
330
6F
100
AcDbEntity
  8
_2-4_仕上げ
  6
Continuous
 62
     5
100
AcDbLine
 10
210.4263655641282
 20
238.8364178782435
 30
0.0
 11
207.8566892592269
 21
238.877423351194
 31
0.0
  0
LINE
  5
44A
330
6F
100
AcDbEntity
  8
_2-4_仕上げ
  6
Continuous
 62
     5
100
AcDbLine
 10
239.5263655641282
 20
234.5102943643074
 30
0.0
 11
239.5263655641282
 21
212.7651873493772
 31
0.0
  0
LINE
  5
44B
330
6F
100
AcDbEntity
  8
_2-4_仕上げ
  6
Continuous
 62
     5
100
AcDbLine
 10
239.4218408329346
 20
233.2656702161124
 30
0.0
 11
233.415124617572
 21
234.0742666297189
 31
0.0
  0
LINE
  5
44C
330
6F
100
AcDbEntity
  8
_2-4_仕上げ
  6
Continuous
 62
     5
100
AcDbLine
 10
239.5263655641282
 20
253.3102943707425
 30
0.0
 11
239.5263655641282
 21
238.5899424576155
 31
0.0
  0
LINE
  5
44D
330
6F
100
AcDbEntity
  8
_2-4_仕上げ
  6
Continuous
 62
     5
100
AcDbLine
 10
186.4857735105282
 20
234.2209856284872
 30
0.0
 11
186.4857735105282
 21
234.8903389201038
 31
0.0
  0
LINE
  5
44E
330
6F
100
AcDbEntity
  8
_2-4_仕上げ
  6
Continuous
 62
     5
100
AcDbLine
 10
196.8074856494024
 20
235.0135246279369
 30
0.0
 11
186.4857735105282
 21
234.8903389201038
 31
0.0
  0
LINE
  5
44F
330
6F
100
AcDbEntity
  8
_2-4_仕上げ
  6
Continuous
 62
     5
100
AcDbLine
 10
180.4071424451937
 20
239.2154355538216
 30
0.0
 11
180.4071424451937
 21
234.8903389201038
 31
0.0
  0
LINE
  5
450
330
6F
100
AcDbEntity
  8
_2-4_仕上げ
  6
Continuous
 62
     5
100
AcDbLine
 10
186.5766864174966
 20
234.8903389201038
 30
0.0
 11
180.4071424451937
 21
234.8903389201038
 31
0.0
  0
LINE
  5
451
330
6F
100
AcDbEntity
  8
_2-4_仕上げ
  6
Continuous
 62
     5
100
AcDbLine
 10
82.89604186902947
 20
238.877423351194
 30
0.0
 11
93.88463464617995
 21
239.0439171811507
 31
0.0
  0
LINE
  5
452
330
6F
100
AcDbEntity
  8
_2-4_仕上げ
  6
Continuous
 62
     5
100
AcDbLine
 10
93.88463464617995
 20
239.0439171811507
 30
0.0
 11
105.0380660353128
 21
239.2103863063617
 31
0.0
  0
LINE
  5
453
330
6F
100
AcDbEntity
  8
_2-4_仕上げ
  6
Continuous
 62
     5
100
AcDbLine
 10
80.32636556412823
 20
238.8364178782435
 30
0.0
 11
82.89604186902947
 21
238.877423351194
 31
0.0
  0
LINE
  5
454
330
6F
100
AcDbEntity
  8
_2-4_仕上げ
  6
Continuous
 62
     5
100
AcDbLine
 10
56.64294808347364
 20
234.0501421666846
 30
0.0
 11
55.65891074364925
 21
233.8482883533873
 31
0.0
  0
LINE
  5
455
330
6F
100
AcDbEntity
  8
_2-4_仕上げ
  6
Continuous
 62
     5
100
AcDbLine
 10
93.94524547885394
 20
235.0135246279369
 30
0.0
 11
104.2669576177281
 21
234.8903389201038
 31
0.0
  0
LINE
  5
456
330
6F
100
AcDbEntity
  8
_2-4_仕上げ
  6
Continuous
 62
     5
100
AcDbLine
 10
104.2669576177281
 20
234.2209856284872
 30
0.0
 11
104.2669576177281
 21
234.8903389201038
 31
0.0
  0
LINE
  5
457
330
6F
100
AcDbEntity
  8
_2-4_仕上げ
  6
Continuous
 62
     5
100
AcDbLine
 10
104.1760447107598
 20
234.8903389201038
 30
0.0
 11
110.3455886830626
 21
234.8903389201038
 31
0.0
  0
LINE
  5
458
330
6F
100
AcDbEntity
  8
_2-4_仕上げ
  6
Continuous
 62
     5
100
AcDbLine
 10
110.3455886830626
 20
239.2154355538216
 30
0.0
 11
110.3455886830626
 21
234.8903389201038
 31
0.0
  0
LINE
  5
459
330
6F
100
AcDbEntity
  8
_2-4_仕上げ
  6
Continuous
 62
     5
100
AcDbLine
 10
108.9763655641281
 20
239.2154355538216
 30
0.0
 11
110.3455886830626
 21
239.2154355538216
 31
0.0
  0
LINE
  5
45A
330
6F
100
AcDbEntity
  8
_2-4_仕上げ
  6
Continuous
 62
     5
100
AcDbLine
 10
67.25916236585239
 20
238.6278986782709
 30
0.0
 11
76.72636556412823
 21
238.7789710697328
 31
0.0
  0
LINE
  5
45B
330
6F
100
AcDbEntity
  8
_2-4_仕上げ
  6
Continuous
 62
     5
100
AcDbLine
 10
58.47602683605606
 20
238.5409369403522
 30
0.0
 11
67.25916236585239
 21
238.6278986782709
 31
0.0
  0
LINE
  5
45C
330
6F
100
AcDbEntity
  8
_2-4_仕上げ
  6
Continuous
 62
     5
100
AcDbLine
 10
58.47602683605606
 20
238.5409369403522
 30
0.0
 11
55.36932132712892
 21
238.5069405820966
 31
0.0
  0
LINE
  5
45D
330
6F
100
AcDbEntity
  8
_2-4_仕上げ
  6
Continuous
 62
     5
100
AcDbLine
 10
55.36932132712892
 20
238.5069405820966
 30
0.0
 11
51.30222942670335
 21
238.5899424576155
 31
0.0
  0
LINE
  5
45E
330
6F
100
AcDbEntity
  8
_2-4_仕上げ
  6
Continuous
 62
     5
100
AcDbLine
 10
51.30222942670335
 20
238.5899424576155
 30
0.0
 11
48.52636556412818
 21
238.5899424576155
 31
0.0
  0
LINE
  5
45F
330
6F
100
AcDbEntity
  8
_2-4_仕上げ
  6
Continuous
 62
     5
100
AcDbLine
 10
51.22636556412823
 20
233.6102943643073
 30
0.0
 11
51.22636556412823
 21
155.2341248807636
 31
0.0
  0
LINE
  5
460
330
6F
100
AcDbEntity
  8
_2-4_仕上げ
  6
Continuous
 62
     5
100
AcDbLine
 10
48.67636556412822
 20
251.5102943667425
 30
0.0
 11
48.67636556412822
 21
238.5899424576155
 31
0.0
  0
LINE
  5
461
330
6F
100
AcDbEntity
  8
_2-4_仕上げ
  6
Continuous
 62
     5
100
AcDbLine
 10
51.0763655641282
 20
251.5102943667425
 30
0.0
 11
51.0763655641282
 21
238.5899424576155
 31
0.0
  0
LINE
  5
462
330
6F
100
AcDbEntity
  8
_2-4_仕上げ
  6
Continuous
 62
     5
100
AcDbLine
 10
51.33089029532175
 20
233.2656702161124
 30
0.0
 11
55.65891074364925
 21
233.8482883533873
 31
0.0
  0
LINE
  5
463
330
6F
100
AcDbEntity
  8
_2-4_仕上げ
  6
Continuous
 62
     5
100
AcDbLine
 10
79.72636556412822
 20
234.7954819870071
 30
0.0
 11
79.72636556412822
 21
234.7980870534715
 31
0.0
  0
LINE
  5
464
330
6F
100
AcDbEntity
  8
_2-4_仕上げ
  6
Continuous
 62
     5
100
AcDbLine
 10
93.94524547885394
 20
235.0135246279369
 30
0.0
 11
79.72636556412822
 21
234.7980870534715
 31
0.0
  0
LINE
  5
465
330
6F
100
AcDbEntity
  8
_2-4_仕上げ
  6
Continuous
 62
     5
100
AcDbLine
 10
77.32636556412822
 20
234.7571841146666
 30
0.0
 11
77.32636556412822
 21
234.7684467619949
 31
0.0
  0
LINE
  5
466
330
6F
100
AcDbEntity
  8
_2-4_仕上げ
  6
Continuous
 62
     5
100
AcDbLine
 10
56.64294808347364
 20
234.0501421666846
 30
0.0
 11
77.32636556412822
 21
234.7684467619949
 31
0.0
  0
LINE
  5
467
330
6F
100
AcDbEntity
  8
_2-4_仕上げ
  6
Continuous
 62
     5
100
AcDbLine
 10
79.72636556412822
 20
234.7954819870071
 30
0.0
 11
77.32636556412822
 21
234.7571841146666
 31
0.0
  0
LINE
  5
468
330
6F
100
AcDbEntity
  8
_2-4_仕上げ
  6
Continuous
 62
     5
100
AcDbLine
 10
162.6826692476184
 20
231.5824536023621
 30
0.0
 11
181.4890933907399
 21
230.5636712123796
 31
0.0
  0
LINE
  5
469
330
6F
100
AcDbEntity
  8
_2-4_仕上げ
  6
Continuous
 62
     5
100
AcDbLine
 10
162.6817060597288
 20
231.5825050037688
 30
0.0
 11
146.5763655641282
 21
231.8290999475195
 31
0.0
  0
LINE
  5
46A
330
6F
100
AcDbEntity
  8
_2-4_仕上げ
  6
Continuous
 62
     5
100
AcDbLine
 10
182.3763655641282
 20
160.4102943643072
 30
0.0
 11
182.3763655641282
 21
154.4977892353745
 31
0.0
  0
LINE
  5
46B
330
6F
100
AcDbEntity
  8
_2-4_仕上げ
  6
Continuous
 62
     5
100
AcDbLine
 10
184.7763655641282
 20
160.4102943643072
 30
0.0
 11
184.7763655641282
 21
154.4977892353745
 31
0.0
  0
LINE
  5
46C
330
6F
100
AcDbEntity
  8
_2-4_仕上げ
  6
Continuous
 62
     5
100
AcDbLine
 10
181.2276564749549
 20
155.2276661004532
 30
0.0
 11
182.3763655641282
 21
155.2350949500831
 31
0.0
  0
LINE
  5
46D
330
6F
100
AcDbEntity
  8
_2-4_仕上げ
  6
Continuous
 62
     5
100
AcDbLine
 10
185.6763655641282
 20
157.4102943643073
 30
0.0
 11
185.6763655641282
 21
230.0919668262632
 31
0.0
  0
LINE
  5
46E
330
6F
100
AcDbEntity
  8
_2-4_仕上げ
  6
Continuous
 62
     5
100
AcDbLine
 10
187.6422163934407
 20
153.2463487079851
 30
0.0
 11
186.9147503582392
 21
154.4102943643073
 31
0.0
  0
LINE
  5
46F
330
6F
100
AcDbEntity
  8
_2-4_仕上げ
  6
Continuous
 62
     5
100
AcDbLine
 10
258.7763655641284
 20
157.4102943643073
 30
0.0
 11
184.7763655641282
 21
157.4102943643073
 31
0.0
  0
LINE
  5
470
330
6F
100
AcDbEntity
  8
_2-4_仕上げ
  6
DASHED1
 62
     5
100
AcDbLine
 10
184.9263655641282
 20
207.2102943643073
 30
0.0
 11
258.9763655641281
 21
207.2102943643073
 31
0.0
  0
LINE
  5
471
330
6F
100
AcDbEntity
  8
_2-4_仕上げ
  6
DASHED1
 62
     5
100
AcDbLine
 10
184.9263655641282
 20
201.2102943643073
 30
0.0
 11
258.9336260594349
 21
201.2102943643073
 31
0.0
  0
LINE
  5
472
330
6F
100
AcDbEntity
  8
_2-4_仕上げ
  6
Continuous
 62
     5
100
AcDbLine
 10
254.8763655641283
 20
256.3102943667425
 30
0.0
 11
254.8763655641283
 21
253.3102943707425
 31
0.0
  0
LINE
  5
473
330
6F
100
AcDbEntity
  8
_2-4_仕上げ
  6
Continuous
 62
     5
100
AcDbLine
 10
254.8763655641283
 20
253.3102943707425
 30
0.0
 11
242.0763655641283
 21
253.3102943707425
 31
0.0
  0
LINE
  5
474
330
6F
100
AcDbEntity
  8
_2-4_仕上げ
  6
Continuous
 62
     5
100
AcDbLine
 10
48.52636556412818
 20
253.3102943707425
 30
0.0
 11
35.87636556412821
 21
253.3102943707425
 31
0.0
  0
LINE
  5
475
330
6F
100
AcDbEntity
  8
_2-4_仕上げ
  6
Continuous
 62
     5
100
AcDbLine
 10
35.87636556412821
 20
256.3102943667425
 30
0.0
 11
35.87636556412821
 21
253.3102943707425
 31
0.0
  0
LINE
  5
476
330
6F
100
AcDbEntity
  8
_2-4_仕上げ
  6
Continuous
 62
     5
100
AcDbLine
 10
48.67636556412822
 20
253.3102943707425
 30
0.0
 11
36.12636556412817
 21
253.3102943707425
 31
0.0
  0
LINE
  5
477
330
6F
100
AcDbEntity
  8
_2-4_仕上げ
  6
Continuous
 62
     5
100
AcDbLine
 10
254.8763655641283
 20
256.3102943667425
 30
0.0
 11
35.87636556412821
 21
256.3102943667425
 31
0.0
  0
LINE
  5
478
330
6F
100
AcDbEntity
  8
_2-4_仕上げ
  6
Continuous
 62
     5
100
AcDbLine
 10
277.4839279512944
 20
204.3318912893306
 30
0.0
 11
242.2263655641283
 21
220.1977943650693
 31
0.0
  0
LINE
  5
479
330
6F
100
AcDbEntity
  8
_2-4_仕上げ
  6
Continuous
 62
     5
100
AcDbLine
 10
242.2263655641283
 20
253.3102943707425
 30
0.0
 11
242.2263655641283
 21
212.889380029231
 31
0.0
  0
LINE
  5
47A
330
6F
100
AcDbEntity
  8
_2-4_仕上げ
  6
Continuous
 62
     5
100
AcDbLine
 10
48.52636556412818
 20
155.2341248807636
 30
0.0
 11
48.52636556412818
 21
211.2300534449352
 31
0.0
  0
LINE
  5
47B
330
6F
100
AcDbEntity
  8
_2-4_仕上げ
  6
Continuous
 62
     5
100
AcDbLine
 10
48.52636556412818
 20
217.2102943643073
 30
0.0
 11
48.52636556412818
 21
238.5899424576155
 31
0.0
  0
LINE
  5
47C
330
6F
100
AcDbEntity
  8
_2-4_仕上げ
  6
Continuous
 62
     5
100
AcDbLine
 10
29.57636556412808
 20
209.8102943643074
 30
0.0
 11
29.57636556412808
 21
156.8102943643073
 31
0.0
  0
LINE
  5
47D
330
6F
100
AcDbEntity
  8
_2-4_仕上げ
  6
Continuous
 62
     5
100
AcDbLine
 10
31.97636556412806
 20
209.8102943643073
 30
0.0
 11
31.97636556412806
 21
156.8102943643073
 31
0.0
  0
LINE
  5
47E
330
6F
100
AcDbEntity
  8
_2-4_仕上げ
  6
Continuous
 62
     5
100
AcDbLine
 10
31.97636556412857
 20
212.2102943643272
 30
0.0
 11
48.67636556412828
 21
212.2102943643272
 31
0.0
  0
LINE
  5
47F
330
6F
100
AcDbEntity
  8
_2-4_仕上げ
  6
Continuous
 62
     5
100
AcDbLine
 10
108.3763655641281
 20
218.8102943643073
 30
0.0
 11
182.3763655641282
 21
218.8102943643073
 31
0.0
  0
LINE
  5
480
330
6F
100
AcDbEntity
  8
_2-4_仕上げ
  6
Continuous
 62
     5
100
AcDbLine
 10
105.9763655641281
 20
218.8102943643073
 30
0.0
 11
51.02974902268821
 21
218.8102943643073
 31
0.0
  0
LINE
  5
481
330
6F
100
AcDbEntity
  8
_2-4_仕上げ
  6
Continuous
 62
     5
100
AcDbLine
 10
33.0597924963283
 20
211.6740738987404
 30
0.0
 11
48.82636556412819
 21
211.6740738987404
 31
0.0
  0
LINE
  5
482
330
6F
100
AcDbEntity
  8
_2-4_仕上げ
  6
Continuous
 62
     5
100
AcDbLine
 10
258.7763655641278
 20
210.5387684751562
 30
0.0
 11
243.2763655641283
 21
210.5387684751562
 31
0.0
  0
SOLID
  5
483
330
6F
100
AcDbEntity
  8
_2-B_敷地外要素
  6
Continuous
 62
     8
100
AcDbTrace
 10
48.52636556412818
 20
237.2102943643073
 30
0.0
 11
51.22636556412823
 21
237.2102943643073
 31
0.0
 12
48.52636556412818
 22
233.6102943643073
 32
0.0
 13
51.22636556412823
 23
233.6102943643073
 33
0.0
  0
ARC
  5
484
330
6F
100
AcDbEntity
  8
_2-B_敷地外要素
  6
Continuous
 62
     1
100
AcDbCircle
 10
78.52636556412824
 20
237.8102943643074
 30
0.0
 40
2.399999999999999
100
AcDbArc
 50
41.40962210927165
 51
138.5903778907283
  0
ARC
  5
485
330
6F
100
AcDbEntity
  8
_2-B_敷地外要素
  6
Continuous
 62
     1
100
AcDbCircle
 10
78.52636556412824
 20
237.8102943643074
 30
0.0
 40
2.399999999999999
100
AcDbArc
 50
221.4096221092716
 51
318.5903778907284
  0
SOLID
  5
486
330
6F
100
AcDbEntity
  8
_2-B_敷地外要素
  6
Continuous
 62
     8
100
AcDbTrace
 10
80.32636556412823
 20
239.3977451509461
 30
0.0
 11
80.32636556412823
 21
236.2228435776686
 31
0.0
 12
76.72636556412823
 22
239.3977451509461
 32
0.0
 13
76.72636556412823
 23
236.2228435776686
 33
0.0
  0
ARC
  5
487
330
6F
100
AcDbEntity
  8
_2-B_敷地外要素
  6
Continuous
 62
     1
100
AcDbCircle
 10
78.52636556412824
 20
237.8102943643074
 30
0.0
 40
2.399999999999999
100
AcDbArc
 50
221.4096221092716
 51
318.5903778907284
  0
ARC
  5
488
330
6F
100
AcDbEntity
  8
_2-B_敷地外要素
  6
Continuous
 62
     1
100
AcDbCircle
 10
78.52636556412824
 20
237.8102943643074
 30
0.0
 40
2.399999999999999
100
AcDbArc
 50
41.40962210927165
 51
138.5903778907283
  0
SOLID
  5
489
330
6F
100
AcDbEntity
  8
_2-B_敷地外要素
  6
Continuous
 62
     8
100
AcDbTrace
 10
105.3763655641281
 20
239.3977451509461
 30
0.0
 11
105.3763655641281
 21
236.2228435776686
 31
0.0
 12
108.9763655641281
 22
239.3977451509461
 32
0.0
 13
108.9763655641281
 23
236.2228435776686
 33
0.0
  0
ARC
  5
48A
330
6F
100
AcDbEntity
  8
_2-B_敷地外要素
  6
Continuous
 62
     1
100
AcDbCircle
 10
107.1763655641281
 20
237.8102943643074
 30
0.0
 40
2.399999999999999
100
AcDbArc
 50
221.4096221092716
 51
318.5903778907284
  0
ARC
  5
48B
330
6F
100
AcDbEntity
  8
_2-B_敷地外要素
  6
Continuous
 62
     1
100
AcDbCircle
 10
107.1763655641281
 20
237.8102943643074
 30
0.0
 40
2.399999999999999
100
AcDbArc
 50
41.40962210927165
 51
138.5903778907283
  0
SOLID
  5
48C
330
6F
100
AcDbEntity
  8
_2-B_敷地外要素
  6
Continuous
 62
     8
100
AcDbTrace
 10
143.5763655641282
 20
239.3977451509461
 30
0.0
 11
143.5763655641282
 21
236.2228435776686
 31
0.0
 12
147.1763655641282
 22
239.3977451509461
 32
0.0
 13
147.1763655641282
 23
236.2228435776686
 33
0.0
  0
ARC
  5
48D
330
6F
100
AcDbEntity
  8
_2-B_敷地外要素
  6
Continuous
 62
     1
100
AcDbCircle
 10
145.3763655641282
 20
237.8102943643074
 30
0.0
 40
2.399999999999999
100
AcDbArc
 50
221.4096221092716
 51
318.5903778907284
  0
ARC
  5
48E
330
6F
100
AcDbEntity
  8
_2-B_敷地外要素
  6
Continuous
 62
     1
100
AcDbCircle
 10
145.3763655641282
 20
237.8102943643074
 30
0.0
 40
2.399999999999999
100
AcDbArc
 50
41.40962210927165
 51
138.5903778907283
  0
SOLID
  5
48F
330
6F
100
AcDbEntity
  8
_2-B_敷地外要素
  6
Continuous
 62
     8
100
AcDbTrace
 10
181.7763655641283
 20
239.3977451509461
 30
0.0
 11
181.7763655641283
 21
236.2228435776686
 31
0.0
 12
185.3763655641282
 22
239.3977451509461
 32
0.0
 13
185.3763655641282
 23
236.2228435776686
 33
0.0
  0
ARC
  5
490
330
6F
100
AcDbEntity
  8
_2-B_敷地外要素
  6
Continuous
 62
     1
100
AcDbCircle
 10
183.5763655641282
 20
237.8102943643074
 30
0.0
 40
2.399999999999999
100
AcDbArc
 50
221.4096221092716
 51
318.5903778907284
  0
ARC
  5
491
330
6F
100
AcDbEntity
  8
_2-B_敷地外要素
  6
Continuous
 62
     1
100
AcDbCircle
 10
183.5763655641282
 20
237.8102943643074
 30
0.0
 40
2.399999999999999
100
AcDbArc
 50
41.40962210927165
 51
138.5903778907283
  0
SOLID
  5
492
330
6F
100
AcDbEntity
  8
_2-B_敷地外要素
  6
Continuous
 62
     8
100
AcDbTrace
 10
210.4263655641282
 20
239.3977451509461
 30
0.0
 11
210.4263655641282
 21
236.2228435776686
 31
0.0
 12
214.0263655641282
 22
239.3977451509461
 32
0.0
 13
214.0263655641282
 23
236.2228435776686
 33
0.0
  0
ARC
  5
493
330
6F
100
AcDbEntity
  8
_2-B_敷地外要素
  6
Continuous
 62
     1
100
AcDbCircle
 10
212.2263655641281
 20
237.8102943643074
 30
0.0
 40
2.399999999999999
100
AcDbArc
 50
221.4096221092716
 51
318.5903778907284
  0
ARC
  5
494
330
6F
100
AcDbEntity
  8
_2-B_敷地外要素
  6
Continuous
 62
     1
100
AcDbCircle
 10
212.2263655641281
 20
237.8102943643074
 30
0.0
 40
2.399999999999999
100
AcDbArc
 50
41.40962210927165
 51
138.5903778907283
  0
SOLID
  5
495
330
6F
100
AcDbEntity
  8
_2-B_敷地外要素
  6
Continuous
 62
     8
100
AcDbTrace
 10
239.5263655641282
 20
237.2102943643073
 30
0.0
 11
239.5263655641282
 21
234.5102943643074
 31
0.0
 12
242.2263655641283
 22
237.2102943643073
 32
0.0
 13
242.2263655641283
 23
234.5102943643074
 33
0.0
  0
SOLID
  5
496
330
6F
100
AcDbEntity
  8
_2-B_敷地外要素
  6
Continuous
 62
     8
100
AcDbTrace
 10
238.4763655641283
 20
212.0102943643073
 30
0.0
 11
238.4763655641283
 21
208.4102943643073
 31
0.0
 12
243.2763655641283
 22
212.0102943643073
 32
0.0
 13
243.2763655641283
 23
208.4102943643073
 33
0.0
  0
ARC
  5
497
330
6F
100
AcDbEntity
  8
_2-B_敷地外要素
  6
Continuous
 62
     1
100
AcDbCircle
 10
240.8763655641283
 20
210.2102943643073
 30
0.0
 40
3.0
100
AcDbArc
 50
216.8698976458443
 51
323.1301023541557
  0
ARC
  5
498
330
6F
100
AcDbEntity
  8
_2-B_敷地外要素
  6
Continuous
 62
     1
100
AcDbCircle
 10
240.8763655641283
 20
210.2102943643073
 30
0.0
 40
3.0
100
AcDbArc
 50
36.8698976458443
 51
143.1301023541557
  0
SOLID
  5
499
330
6F
100
AcDbEntity
  8
_2-B_敷地外要素
  6
Continuous
 62
     8
100
AcDbTrace
 10
258.7763655641278
 20
209.8102943643073
 30
0.0
 11
258.7763655641278
 21
212.2102943643073
 31
0.0
 12
261.1763655641279
 22
209.8102943643073
 32
0.0
 13
261.1763655641279
 23
212.2102943643073
 33
0.0
  0
SOLID
  5
49A
330
6F
100
AcDbEntity
  8
_2-B_敷地外要素
  6
Continuous
 62
     8
100
AcDbTrace
 10
258.7763655641281
 20
195.2102943643073
 30
0.0
 11
258.7763655641281
 21
198.2102943643073
 31
0.0
 12
261.1763655641281
 22
195.2102943643073
 32
0.0
 13
261.1763655641281
 23
198.2102943643073
 33
0.0
  0
SOLID
  5
49B
330
6F
100
AcDbEntity
  8
_2-B_敷地外要素
  6
Continuous
 62
     8
100
AcDbTrace
 10
184.9263655641282
 20
207.2102943643073
 30
0.0
 11
184.9263655641282
 21
201.2102943643073
 31
0.0
 12
182.2263655641282
 22
207.2102943643073
 32
0.0
 13
182.2263655641282
 23
201.2102943643073
 33
0.0
  0
SOLID
  5
49C
330
6F
100
AcDbEntity
  8
_2-B_敷地外要素
  6
Continuous
 62
     8
100
AcDbTrace
 10
105.8263655641281
 20
207.2102943643073
 30
0.0
 11
108.5263655641282
 21
207.2102943643073
 31
0.0
 12
105.8263655641281
 22
201.2102943643073
 32
0.0
 13
108.5263655641282
 23
201.2102943643073
 33
0.0
  0
SOLID
  5
49D
330
6F
100
AcDbEntity
  8
_2-B_敷地外要素
  6
Continuous
 62
     8
100
AcDbTrace
 10
47.00136556412821
 20
216.1946078476058
 30
0.0
 11
47.00136556412821
 21
212.2259808810088
 31
0.0
 12
50.60136556412818
 22
216.1946078476058
 32
0.0
 13
50.60136556412818
 23
212.2259808810088
 33
0.0
  0
LINE
  5
49E
330
6F
100
AcDbEntity
  8
_2-B_敷地外要素
  6
Continuous
 62
     1
100
AcDbLine
 10
47.00136556412821
 20
212.2259808810088
 30
0.0
 11
47.00136556412821
 21
212.2259808810088
 31
0.0
  0
LINE
  5
49F
330
6F
100
AcDbEntity
  8
_2-B_敷地外要素
  6
Continuous
 62
     1
100
AcDbLine
 10
47.00136556412821
 20
212.2259808810088
 30
0.0
 11
47.304369544942
 21
211.8654186617976
 31
0.0
  0
LINE
  5
4A0
330
6F
100
AcDbEntity
  8
_2-B_敷地外要素
  6
Continuous
 62
     1
100
AcDbLine
 10
47.304369544942
 20
211.8654186617976
 30
0.0
 11
47.65285899228222
 21
211.576104304243
 31
0.0
  0
LINE
  5
4A1
330
6F
100
AcDbEntity
  8
_2-B_敷地外要素
  6
Continuous
 62
     1
100
AcDbLine
 10
47.65285899228222
 20
211.576104304243
 30
0.0
 11
48.03624523063561
 21
211.3668284786988
 31
0.0
  0
LINE
  5
4A2
330
6F
100
AcDbEntity
  8
_2-B_敷地外要素
  6
Continuous
 62
     1
100
AcDbLine
 10
48.03624523063561
 20
211.3668284786988
 30
0.0
 11
48.44287926315261
 21
211.2439499252257
 31
0.0
  0
LINE
  5
4A3
330
6F
100
AcDbEntity
  8
_2-B_敷地外要素
  6
Continuous
 62
     1
100
AcDbLine
 10
48.44287926315261
 20
211.2439499252257
 30
0.0
 11
48.86040572052191
 21
211.2112022464914
 31
0.0
  0
LINE
  5
4A4
330
6F
100
AcDbEntity
  8
_2-B_敷地外要素
  6
Continuous
 62
     1
100
AcDbLine
 10
48.86040572052191
 20
211.2112022464914
 30
0.0
 11
49.27613827261496
 21
211.269580464143
 31
0.0
  0
LINE
  5
4A5
330
6F
100
AcDbEntity
  8
_2-B_敷地外要素
  6
Continuous
 62
     1
100
AcDbLine
 10
49.27613827261496
 20
211.269580464143
 30
0.0
 11
49.67744509620724
 21
211.4173107855782
 31
0.0
  0
LINE
  5
4A6
330
6F
100
AcDbEntity
  8
_2-B_敷地外要素
  6
Continuous
 62
     1
100
AcDbLine
 10
49.67744509620724
 20
211.4173107855782
 30
0.0
 11
50.05213268653491
 21
211.6499044997352
 31
0.0
  0
LINE
  5
4A7
330
6F
100
AcDbEntity
  8
_2-B_敷地外要素
  6
Continuous
 62
     1
100
AcDbLine
 10
50.05213268653491
 20
211.6499044997352
 30
0.0
 11
50.38881635076697
 21
211.9602943643073
 31
0.0
  0
LINE
  5
4A8
330
6F
100
AcDbEntity
  8
_2-B_敷地外要素
  6
Continuous
 62
     1
100
AcDbLine
 10
50.38881635076697
 20
211.9602943643073
 30
0.0
 11
50.60136556412818
 21
212.2259808810088
 31
0.0
  0
LINE
  5
4A9
330
6F
100
AcDbEntity
  8
_2-B_敷地外要素
  6
Continuous
 62
     1
100
AcDbLine
 10
50.60136556412818
 20
216.1946078476058
 30
0.0
 11
50.60136556412818
 21
216.1946078476058
 31
0.0
  0
LINE
  5
4AA
330
6F
100
AcDbEntity
  8
_2-B_敷地外要素
  6
Continuous
 62
     1
100
AcDbLine
 10
50.60136556412818
 20
216.1946078476058
 30
0.0
 11
50.29836158331438
 21
216.5551700668169
 31
0.0
  0
LINE
  5
4AB
330
6F
100
AcDbEntity
  8
_2-B_敷地外要素
  6
Continuous
 62
     1
100
AcDbLine
 10
50.29836158331438
 20
216.5551700668169
 30
0.0
 11
49.94987213597416
 21
216.8444844243716
 31
0.0
  0
LINE
  5
4AC
330
6F
100
AcDbEntity
  8
_2-B_敷地外要素
  6
Continuous
 62
     1
100
AcDbLine
 10
49.94987213597416
 20
216.8444844243716
 30
0.0
 11
49.56648589762077
 21
217.0537602499158
 31
0.0
  0
LINE
  5
4AD
330
6F
100
AcDbEntity
  8
_2-B_敷地外要素
  6
Continuous
 62
     1
100
AcDbLine
 10
49.56648589762077
 20
217.0537602499158
 30
0.0
 11
49.15985186510378
 21
217.1766388033889
 31
0.0
  0
LINE
  5
4AE
330
6F
100
AcDbEntity
  8
_2-B_敷地外要素
  6
Continuous
 62
     1
100
AcDbLine
 10
49.15985186510378
 20
217.1766388033889
 30
0.0
 11
48.74232540773446
 21
217.2093864821232
 31
0.0
  0
LINE
  5
4AF
330
6F
100
AcDbEntity
  8
_2-B_敷地外要素
  6
Continuous
 62
     1
100
AcDbLine
 10
48.74232540773446
 20
217.2093864821232
 30
0.0
 11
48.3265928556414
 21
217.1510082644716
 31
0.0
  0
LINE
  5
4B0
330
6F
100
AcDbEntity
  8
_2-B_敷地外要素
  6
Continuous
 62
     1
100
AcDbLine
 10
48.3265928556414
 20
217.1510082644716
 30
0.0
 11
47.92528603204914
 21
217.0032779430364
 31
0.0
  0
LINE
  5
4B1
330
6F
100
AcDbEntity
  8
_2-B_敷地外要素
  6
Continuous
 62
     1
100
AcDbLine
 10
47.92528603204914
 20
217.0032779430364
 30
0.0
 11
47.55059844172145
 21
216.7706842288795
 31
0.0
  0
LINE
  5
4B2
330
6F
100
AcDbEntity
  8
_2-B_敷地外要素
  6
Continuous
 62
     1
100
AcDbLine
 10
47.55059844172145
 20
216.7706842288795
 30
0.0
 11
47.2139147774894
 21
216.4602943643073
 31
0.0
  0
LINE
  5
4B3
330
6F
100
AcDbEntity
  8
_2-B_敷地外要素
  6
Continuous
 62
     1
100
AcDbLine
 10
47.2139147774894
 20
216.4602943643073
 30
0.0
 11
47.00136556412821
 21
216.1946078476058
 31
0.0
  0
SOLID
  5
4B4
330
6F
100
AcDbEntity
  8
_2-B_敷地外要素
  6
Continuous
 62
     8
100
AcDbTrace
 10
29.57636556412848
 20
212.2102943643073
 30
0.0
 11
31.97636556412857
 21
212.2102943643073
 31
0.0
 12
29.57636556412848
 22
209.8102943643073
 32
0.0
 13
31.97636556412857
 23
209.8102943643073
 33
0.0
  0
SOLID
  5
4B5
330
6F
100
AcDbEntity
  8
_2-B_敷地外要素
  6
Continuous
 62
     8
100
AcDbTrace
 10
29.57636556412808
 20
156.8102943643073
 30
0.0
 11
31.97636556412806
 21
156.8102943643073
 31
0.0
 12
29.57636556412808
 22
154.4102943643073
 32
0.0
 13
31.97636556412806
 23
154.4102943643073
 33
0.0
  0
SOLID
  5
4B6
330
6F
100
AcDbEntity
  8
_2-B_敷地外要素
  6
Continuous
 62
     8
100
AcDbTrace
 10
261.1763655641284
 20
156.8102943643073
 30
0.0
 11
258.7763655641284
 21
156.8102943643073
 31
0.0
 12
261.1763655641284
 22
154.4102943643073
 32
0.0
 13
258.7763655641284
 23
154.4102943643073
 33
0.0
  0
LINE
  5
4B7
330
6F
100
AcDbEntity
  8
_2-5_建具枠
  6
Continuous
 62
     2
100
AcDbLine
 10
105.8263655641281
 20
165.2102943643073
 30
0.0
 11
108.5263655641282
 21
165.2102943643073
 31
0.0
  0
LINE
  5
4B8
330
6F
100
AcDbEntity
  8
_2-5_建具枠
  6
Continuous
 62
     2
100
AcDbLine
 10
108.5263655641282
 20
165.2102943643073
 30
0.0
 11
108.5263655641282
 21
164.0102943643073
 31
0.0
  0
LINE
  5
4B9
330
6F
100
AcDbEntity
  8
_2-5_建具枠
  6
Continuous
 62
     2
100
AcDbLine
 10
108.5263655641282
 20
164.0102943643073
 30
0.0
 11
105.8263655641281
 21
164.0102943643073
 31
0.0
  0
LINE
  5
4BA
330
6F
100
AcDbEntity
  8
_2-5_建具枠
  6
Continuous
 62
     2
100
AcDbLine
 10
105.8263655641281
 20
164.0102943643073
 30
0.0
 11
105.8263655641281
 21
165.2102943643073
 31
0.0
  0
LINE
  5
4BB
330
6F
100
AcDbEntity
  8
_2-1_工作物
  6
Continuous
 62
     7
100
AcDbLine
 10
261.7763655641283
 20
153.2102943643073
 30
0.0
 11
291.2141368557193
 21
153.2102943643073
 31
0.0
  0
LINE
  5
4BC
330
6F
100
AcDbEntity
  8
_2-1_工作物
  6
Continuous
 62
     7
100
AcDbLine
 10
258.1763655641284
 20
153.2102943643073
 30
0.0
 11
0.3567095735565999
 21
153.2102943643073
 31
0.0
  0
LINE
  5
4BD
330
6F
100
AcDbEntity
  8
_2-3_植栽
  6
Continuous
 62
     6
100
AcDbLine
 10
108.3763655641281
 20
218.2102943643073
 30
0.0
 11
182.3763655641282
 21
218.2102943643073
 31
0.0
  0
LINE
  5
4BE
330
6F
100
AcDbEntity
  8
_2-3_植栽
  6
Continuous
 62
     6
100
AcDbLine
 10
12.53014675771152
 20
205.9733499986194
 30
0.0
 11
48.28014675771141
 21
222.0608500001544
 31
0.0
  0
LINE
  5
4BF
330
6F
100
AcDbEntity
  8
_2-3_植栽
  6
Continuous
 62
     6
100
AcDbLine
 10
278.2225843705449
 20
205.9733499986194
 30
0.0
 11
242.472584370545
 21
222.0608500001544
 31
0.0
  0
LINE
  5
4C0
330
6F
100
AcDbEntity
  8
_2-3_植栽
  6
Continuous
 62
     6
100
AcDbLine
 10
258.9763655641281
 20
209.8102943643073
 30
0.0
 11
258.9763655641281
 21
198.2102943643073
 31
0.0
  0
LINE
  5
4C1
330
6F
100
AcDbEntity
  8
_2-3_植栽
  6
Continuous
 62
     6
100
AcDbLine
 10
105.9763655641281
 20
218.2102943643073
 30
0.0
 11
51.02974902268821
 21
218.2102943643073
 31
0.0
  0
LINE
  5
4C2
330
6F
100
AcDbEntity
  8
_2-3_植栽
  6
Continuous
 62
     6
100
AcDbLine
 10
51.22636556412823
 20
201.2102943643073
 30
0.0
 11
48.58442312883575
 21
201.2102943643073
 31
0.0
  0
LINE
  5
4C3
330
6F
100
AcDbEntity
  8
_2-3_植栽
  6
Continuous
 62
     6
100
AcDbLine
 10
51.22636556412823
 20
202.0102943643073
 30
0.0
 11
48.58442312883575
 21
202.0102943643073
 31
0.0
  0
LINE
  5
4C4
330
6F
100
AcDbEntity
  8
_2-3_植栽
  6
Continuous
 62
     6
100
AcDbLine
 10
50.92636556412822
 20
218.2102943643073
 30
0.0
 11
50.92636556412822
 21
202.0102943643073
 31
0.0
  0
LINE
  5
4C5
330
6F
100
AcDbEntity
  8
_2-3_植栽
  6
Continuous
 62
     6
100
AcDbLine
 10
51.22636556412823
 20
202.0102943643073
 30
0.0
 11
51.22636556412823
 21
201.2102943643073
 31
0.0
  0
LINE
  5
4C6
330
6F
100
AcDbEntity
  8
_2-3_植栽
  6
Continuous
 62
     6
100
AcDbLine
 10
48.58442312883575
 20
202.0102943643073
 30
0.0
 11
48.58442312883575
 21
201.2102943643073
 31
0.0
  0
LINE
  5
4C7
330
6F
100
AcDbEntity
  8
_2-3_植栽
  6
Continuous
 62
     6
100
AcDbLine
 10
182.6098429613217
 20
165.2102943643073
 30
0.0
 11
51.22636556412823
 21
165.2102943643073
 31
0.0
  0
LINE
  5
4C8
330
6F
100
AcDbEntity
  8
_2-3_植栽
  6
Continuous
 62
     6
100
AcDbLine
 10
51.22636556412823
 20
167.6102943643073
 30
0.0
 11
51.22636556412823
 21
165.2102943643073
 31
0.0
  0
LINE
  5
4C9
330
6F
100
AcDbEntity
  8
_2-3_植栽
  6
Continuous
 62
     6
100
AcDbLine
 10
51.22636556412823
 20
167.6102943643073
 30
0.0
 11
33.0597924963283
 21
167.6102943643073
 31
0.0
  0
LINE
  5
4CA
330
6F
100
AcDbEntity
  8
_2-3_植栽
  6
Continuous
 62
     6
100
AcDbLine
 10
184.4290825537052
 20
251.5102943667425
 30
0.0
 11
184.4290825537052
 21
239.9920367872345
 31
0.0
  0
LINE
  5
4CB
330
6F
100
AcDbEntity
  8
_2-3_植栽
  6
Continuous
 62
     6
100
AcDbLine
 10
260.8163655641281
 20
156.8102943643073
 30
0.0
 11
260.8163655641281
 21
195.2102943643073
 31
0.0
  0
LINE
  5
4CC
330
6F
100
AcDbEntity
  8
_2-3_植栽
  6
Continuous
 62
     6
100
AcDbLine
 10
260.8163655641281
 20
198.2102943643073
 30
0.0
 11
260.8163655641281
 21
209.8102943643073
 31
0.0
  0
LINE
  5
4CD
330
6F
100
AcDbEntity
  8
_2-3_植栽
  6
Continuous
 62
     6
100
AcDbLine
 10
258.9763655641284
 20
195.2102943643073
 30
0.0
 11
258.9763655641284
 21
156.8102943643073
 31
0.0
  0
LINE
  5
4CE
330
6F
100
AcDbEntity
  8
_2-3_植栽
  6
Continuous
 62
     6
100
AcDbLine
 10
33.0597924963283
 20
167.6102943643073
 30
0.0
 11
33.0597924963283
 21
211.0740738987403
 31
0.0
  0
LINE
  5
4CF
330
6F
100
AcDbEntity
  8
_2-3_植栽
  6
Continuous
 62
     6
100
AcDbLine
 10
48.82636556412819
 20
202.0102943643073
 30
0.0
 11
48.82636556412819
 21
211.0740738987403
 31
0.0
  0
LINE
  5
4D0
330
6F
100
AcDbEntity
  8
_2-3_植栽
  6
Continuous
 62
     6
100
AcDbLine
 10
33.0597924963283
 20
211.0740738987403
 30
0.0
 11
48.82636556412819
 21
211.0740738987403
 31
0.0
  0
LINE
  5
4D1
330
6F
100
AcDbEntity
  8
_2-2_舗装
  6
Continuous
 62
     6
100
AcDbLine
 10
279.0706713703206
 20
204.9337594826895
 30
0.0
 11
279.3168901767375
 21
205.4809123857858
 31
0.0
  0
LINE
  5
4D2
330
6F
100
AcDbEntity
  8
_2-2_舗装
  6
Continuous
 62
     6
100
AcDbLine
 10
276.8820597579356
 20
205.9186347083568
 30
0.0
 11
279.0706713703206
 21
204.9337594826895
 31
0.0
  0
LINE
  5
4D3
330
6F
100
AcDbEntity
  8
_2-2_舗装
  6
Continuous
 62
     6
100
AcDbLine
 10
279.3168901767375
 20
205.4809123857858
 30
0.0
 11
277.1282785643524
 21
206.4657876114531
 31
0.0
  0
LINE
  5
4D4
330
6F
100
AcDbEntity
  8
_2-2_舗装
  6
Continuous
 62
     6
100
AcDbLine
 10
277.1282785643524
 20
206.4657876114531
 30
0.0
 11
276.8820597579356
 21
205.9186347083568
 31
0.0
  0
LINE
  5
4D5
330
6F
100
AcDbEntity
  8
_2-2_舗装
  6
Continuous
 62
     6
100
AcDbLine
 10
11.68205975793577
 20
204.9337594826895
 30
0.0
 11
11.43584095151894
 21
205.4809123857858
 31
0.0
  0
LINE
  5
4D6
330
6F
100
AcDbEntity
  8
_2-2_舗装
  6
Continuous
 62
     6
100
AcDbLine
 10
13.87067137032085
 20
205.9186347083568
 30
0.0
 11
11.68205975793577
 21
204.9337594826895
 31
0.0
  0
LINE
  5
4D7
330
6F
100
AcDbEntity
  8
_2-2_舗装
  6
Continuous
 62
     6
100
AcDbLine
 10
11.43584095151894
 20
205.4809123857858
 30
0.0
 11
13.62445256390401
 21
206.4657876114531
 31
0.0
  0
LINE
  5
4D8
330
6F
100
AcDbEntity
  8
_2-2_舗装
  6
Continuous
 62
     6
100
AcDbLine
 10
13.62445256390401
 20
206.4657876114531
 30
0.0
 11
13.87067137032085
 21
205.9186347083568
 31
0.0
  0
LINE
  5
4D9
330
6F
100
AcDbEntity
  8
_2-3_植栽
  6
Continuous
 62
     6
100
AcDbLine
 10
184.7763655641282
 20
207.2102943643073
 30
0.0
 11
184.7763655641282
 21
235.8061001172104
 31
0.0
  0
LINE
  5
4DA
330
6F
100
AcDbEntity
  8
_2-3_植栽
  6
Continuous
 62
     6
100
AcDbLine
 10
184.6263655641282
 20
201.2102943643073
 30
0.0
 11
184.6263655641282
 21
165.2102943643073
 31
0.0
  0
LINE
  5
4DB
330
6F
100
AcDbEntity
  8
_2-3_植栽
  6
Continuous
 62
     6
100
AcDbLine
 10
182.5263655641282
 20
201.2102943643073
 30
0.0
 11
182.5263655641282
 21
165.2102943643073
 31
0.0
  0
LINE
  5
4DC
330
6F
100
AcDbEntity
  8
_2-2_舗装
  6
Continuous
 62
     6
100
AcDbLine
 10
254.4263655641283
 20
257.5102943667425
 30
0.0
 11
256.8263655641282
 21
257.5102943667425
 31
0.0
  0
LINE
  5
4DD
330
6F
100
AcDbEntity
  8
_2-2_舗装
  6
Continuous
 62
     6
100
AcDbLine
 10
256.8263655641282
 20
257.5102943667425
 30
0.0
 11
256.8263655641282
 21
258.1102943667425
 31
0.0
  0
LINE
  5
4DE
330
6F
100
AcDbEntity
  8
_2-2_舗装
  6
Continuous
 62
     6
100
AcDbLine
 10
256.8263655641282
 20
258.1102943667425
 30
0.0
 11
254.4263655641283
 21
258.1102943667425
 31
0.0
  0
LINE
  5
4DF
330
6F
100
AcDbEntity
  8
_2-2_舗装
  6
Continuous
 62
     6
100
AcDbLine
 10
254.4263655641283
 20
258.1102943667425
 30
0.0
 11
254.4263655641283
 21
257.5102943667425
 31
0.0
  0
LINE
  5
4E0
330
6F
100
AcDbEntity
  8
_2-2_舗装
  6
Continuous
 62
     6
100
AcDbLine
 10
254.8763655641282
 20
257.5102943667425
 30
0.0
 11
254.8763655641282
 21
255.1102943667425
 31
0.0
  0
LINE
  5
4E1
330
6F
100
AcDbEntity
  8
_2-2_舗装
  6
Continuous
 62
     6
100
AcDbLine
 10
254.8763655641282
 20
255.1102943667425
 30
0.0
 11
255.4763655641282
 21
255.1102943667425
 31
0.0
  0
LINE
  5
4E2
330
6F
100
AcDbEntity
  8
_2-2_舗装
  6
Continuous
 62
     6
100
AcDbLine
 10
255.4763655641282
 20
255.1102943667425
 30
0.0
 11
255.4763655641282
 21
257.5102943667425
 31
0.0
  0
LINE
  5
4E3
330
6F
100
AcDbEntity
  8
_2-2_舗装
  6
Continuous
 62
     6
100
AcDbLine
 10
255.4763655641282
 20
257.5102943667425
 30
0.0
 11
254.8763655641282
 21
257.5102943667425
 31
0.0
  0
LINE
  5
4E4
330
6F
100
AcDbEntity
  8
_2-2_舗装
  6
Continuous
 62
     6
100
AcDbLine
 10
36.3263655641282
 20
257.5102943667425
 30
0.0
 11
33.92636556412821
 21
257.5102943667425
 31
0.0
  0
LINE
  5
4E5
330
6F
100
AcDbEntity
  8
_2-2_舗装
  6
Continuous
 62
     6
100
AcDbLine
 10
33.92636556412821
 20
257.5102943667425
 30
0.0
 11
33.92636556412821
 21
258.1102943667425
 31
0.0
  0
LINE
  5
4E6
330
6F
100
AcDbEntity
  8
_2-2_舗装
  6
Continuous
 62
     6
100
AcDbLine
 10
33.92636556412821
 20
258.1102943667425
 30
0.0
 11
36.3263655641282
 21
258.1102943667425
 31
0.0
  0
LINE
  5
4E7
330
6F
100
AcDbEntity
  8
_2-2_舗装
  6
Continuous
 62
     6
100
AcDbLine
 10
36.3263655641282
 20
258.1102943667425
 30
0.0
 11
36.3263655641282
 21
257.5102943667425
 31
0.0
  0
LINE
  5
4E8
330
6F
100
AcDbEntity
  8
_2-2_舗装
  6
Continuous
 62
     6
100
AcDbLine
 10
35.87636556412821
 20
257.5102943667425
 30
0.0
 11
35.87636556412821
 21
255.1102943667425
 31
0.0
  0
LINE
  5
4E9
330
6F
100
AcDbEntity
  8
_2-2_舗装
  6
Continuous
 62
     6
100
AcDbLine
 10
35.87636556412821
 20
255.1102943667425
 30
0.0
 11
35.27636556412821
 21
255.1102943667425
 31
0.0
  0
LINE
  5
4EA
330
6F
100
AcDbEntity
  8
_2-2_舗装
  6
Continuous
 62
     6
100
AcDbLine
 10
35.27636556412821
 20
255.1102943667425
 30
0.0
 11
35.27636556412821
 21
257.5102943667425
 31
0.0
  0
LINE
  5
4EB
330
6F
100
AcDbEntity
  8
_2-2_舗装
  6
Continuous
 62
     6
100
AcDbLine
 10
35.27636556412821
 20
257.5102943667425
 30
0.0
 11
35.87636556412821
 21
257.5102943667425
 31
0.0
  0
LINE
  5
4EC
330
6F
100
AcDbEntity
  8
_2-3_植栽
  6
Continuous
 62
     6
100
AcDbLine
 10
254.8763655641283
 20
257.5102943667425
 30
0.0
 11
35.87636556412821
 21
257.5102943667425
 31
0.0
  0
LINE
  5
4ED
330
6F
100
AcDbEntity
  8
_2-3_植栽
  6
Continuous
 62
     6
100
AcDbLine
 10
254.8763655641283
 20
258.1102943667425
 30
0.0
 11
35.87636556412821
 21
258.1102943667425
 31
0.0
  0
LINE
  5
4EE
330
6F
100
AcDbEntity
  8
_2-3_植栽
  6
Continuous
 62
     6
100
AcDbLine
 10
239.8263655641282
 20
234.5102943643074
 30
0.0
 11
239.8263655641282
 21
212.7651873493772
 31
0.0
  0
LINE
  5
4EF
330
6F
100
AcDbEntity
  8
_2-3_植栽
  6
Continuous
 62
     6
100
AcDbLine
 10
239.8263655641282
 20
251.5102943667425
 30
0.0
 11
239.8263655641282
 21
237.2102943643073
 31
0.0
  0
LINE
  5
4F0
330
6F
100
AcDbEntity
  8
_2-3_植栽
  6
Continuous
 62
     6
100
AcDbLine
 10
105.9763655641281
 20
207.2102943643073
 30
0.0
 11
105.9763655641281
 21
235.7832318023739
 31
0.0
  0
LINE
  5
4F1
330
6F
100
AcDbEntity
  8
_2-3_植栽
  6
Continuous
 62
     6
100
AcDbLine
 10
108.3763655641281
 20
207.2102943643073
 30
0.0
 11
108.3763655641281
 21
236.2228435776686
 31
0.0
  0
LINE
  5
4F2
330
6F
100
AcDbEntity
  8
_2-3_植栽
  6
Continuous
 62
     6
100
AcDbLine
 10
182.3763655641282
 20
207.2102943643073
 30
0.0
 11
182.3763655641282
 21
235.4102943643074
 31
0.0
  0
LINE
  5
4F3
330
6F
100
AcDbEntity
  8
_2-3_植栽
  6
Continuous
 62
     6
100
AcDbLine
 10
182.7236485745282
 20
251.5102943667425
 30
0.0
 11
182.7236485745282
 21
240.0537010897246
 31
0.0
  0
LINE
  5
4F4
330
6F
100
AcDbEntity
  8
_2-3_植栽
  6
Continuous
 62
     6
100
AcDbLine
 10
50.7763655641282
 20
251.5102943667425
 30
0.0
 11
50.7763655641282
 21
237.2102943643073
 31
0.0
  0
LINE
  5
4F5
330
6F
100
AcDbEntity
  8
_2-3_植栽
  6
Continuous
 62
     6
100
AcDbLine
 10
50.92636556412822
 20
233.6102943643073
 30
0.0
 11
50.92636556412822
 21
218.2102943643073
 31
0.0
  0
LINE
  5
4F6
330
6F
100
AcDbEntity
  8
_2-3_植栽
  6
Continuous
 62
     6
100
AcDbLine
 10
48.72636556412818
 20
222.9195998290556
 30
0.0
 11
46.87636556412821
 21
222.0870998289761
 31
0.0
  0
LINE
  5
4F7
330
6F
100
AcDbEntity
  8
_2-3_植栽
  6
Continuous
 62
     6
100
AcDbLine
 10
46.87636556412821
 20
222.0870998289761
 30
0.0
 11
46.87636556412821
 21
221.4291484629817
 31
0.0
  0
LINE
  5
4F8
330
6F
100
AcDbEntity
  8
_2-3_植栽
  6
Continuous
 62
     6
100
AcDbLine
 10
242.0263655641283
 20
222.9195998290556
 30
0.0
 11
243.8763655641282
 21
222.0870998289761
 31
0.0
  0
LINE
  5
4F9
330
6F
100
AcDbEntity
  8
_2-3_植栽
  6
Continuous
 62
     6
100
AcDbLine
 10
243.8763655641282
 20
222.0870998289761
 30
0.0
 11
243.8763655641282
 21
221.4291484629817
 31
0.0
  0
LINE
  5
4FA
330
6F
100
AcDbEntity
  8
_2-3_植栽
  6
Continuous
 62
     6
100
AcDbLine
 10
242.8263655641282
 20
254.5102943667425
 30
0.0
 11
242.8263655641282
 21
222.5595998290212
 31
0.0
  0
LINE
  5
4FB
330
6F
100
AcDbEntity
  8
_2-3_植栽
  6
Continuous
 62
     6
100
AcDbLine
 10
47.92636556412818
 20
254.5102943667425
 30
0.0
 11
47.92636556412818
 21
222.5595998290212
 31
0.0
  0
LINE
  5
4FC
330
6F
100
AcDbEntity
  8
_2-3_植栽
  6
Continuous
 62
     6
100
AcDbLine
 10
28.97636556412806
 20
209.810294364307
 30
0.0
 11
28.97636556412806
 21
154.4102943643073
 31
0.0
  0
LINE
  5
4FD
330
6F
100
AcDbEntity
  8
_2-3_植栽
  6
Continuous
 62
     6
100
AcDbLine
 10
258.7763655641278
 20
209.9387684751562
 30
0.0
 11
243.1124335416281
 21
209.9387684751362
 31
0.0
  0
CIRCLE
  5
4FE
330
6F
100
AcDbEntity
  8
_2-D_寸法
 62
     4
100
AcDbCircle
 10
30.7763655641283
 20
231.4610260527431
 30
0.0
 40
0.4
  0
CIRCLE
  5
4FF
330
6F
100
AcDbEntity
  8
_2-D_寸法
 62
     4
100
AcDbCircle
 10
12.7763655641283
 20
231.4610260527431
 30
0.0
 40
0.4
  0
LINE
  5
500
330
6F
100
AcDbEntity
  8
_2-D_寸法
  6
Continuous
 62
     4
100
AcDbLine
 10
30.7763655641283
 20
231.4610260527431
 30
0.0
 11
30.7763655641283
 21
225.0438041789267
 31
0.0
  0
LINE
  5
501
330
6F
100
AcDbEntity
  8
_2-D_寸法
  6
Continuous
 62
     4
100
AcDbLine
 10
12.7763655641283
 20
231.4610260527431
 30
0.0
 11
12.7763655641283
 21
225.0438041789267
 31
0.0
  0
LINE
  5
502
330
6F
100
AcDbEntity
  8
_2-D_寸法
  6
Continuous
 62
    18
100
AcDbLine
 10
30.7763655641283
 20
231.4610260527431
 30
0.0
 11
12.7763655641283
 21
231.4610260527431
 31
0.0
  0
TEXT
  5
503
330
6F
100
AcDbEntity
  8
_2-D_寸法
 62
     3
100
AcDbText
 10
20.22636556412829
 20
231.9610260527432
 30
0.0
 40
2.5
  1
900
 41
0.8
100
AcDbText
  0
CIRCLE
  5
504
330
6F
100
AcDbEntity
  8
_2-D_寸法
 62
     4
100
AcDbCircle
 10
259.9763655641281
 20
231.4610260527431
 30
0.0
 40
0.4
  0
CIRCLE
  5
505
330
6F
100
AcDbEntity
  8
_2-D_寸法
 62
     4
100
AcDbCircle
 10
277.9763655641281
 20
231.4610260527431
 30
0.0
 40
0.4
  0
LINE
  5
506
330
6F
100
AcDbEntity
  8
_2-D_寸法
  6
Continuous
 62
     4
100
AcDbLine
 10
259.9763655641281
 20
231.4610260527431
 30
0.0
 11
259.9763655641281
 21
225.0438041789267
 31
0.0
  0
LINE
  5
507
330
6F
100
AcDbEntity
  8
_2-D_寸法
  6
Continuous
 62
     4
100
AcDbLine
 10
277.9763655641281
 20
231.4610260527431
 30
0.0
 11
277.9763655641281
 21
225.0438041789267
 31
0.0
  0
LINE
  5
508
330
6F
100
AcDbEntity
  8
_2-D_寸法
  6
Continuous
 62
    18
100
AcDbLine
 10
259.9763655641281
 20
231.4610260527431
 30
0.0
 11
277.9763655641281
 21
231.4610260527431
 31
0.0
  0
TEXT
  5
509
330
6F
100
AcDbEntity
  8
_2-D_寸法
 62
     3
100
AcDbText
 10
267.4263655641281
 20
231.9610260527432
 30
0.0
 40
2.5
  1
900
 41
0.8
100
AcDbText
  0
LINE
  5
50A
330
6F
100
AcDbEntity
  8
_1-d_寸法
  6
Continuous
 62
    18
100
AcDbLine
 10
212.2263655641281
 20
135.4304830843073
 30
0.0
 11
221.7763655641281
 21
135.4304830843073
 31
0.0
  0
TEXT
  5
50B
330
6F
100
AcDbEntity
  8
_2-D_寸法
 62
     3
100
AcDbText
 10
214.4013655641281
 20
135.9304830843073
 30
0.0
 40
2.5
  1
477.5
 41
0.8
100
AcDbText
  0
CIRCLE
  5
50C
330
6F
100
AcDbEntity
  8
_2-D_寸法
 62
     4
100
AcDbCircle
 10
221.7763655641281
 20
135.4304830843073
 30
0.0
 40
0.4
  0
LINE
  5
50D
330
6F
100
AcDbEntity
  8
_1-d_寸法
  6
Continuous
 62
    18
100
AcDbLine
 10
202.6763655641281
 20
135.4304830843073
 30
0.0
 11
212.2263655641281
 21
135.4304830843073
 31
0.0
  0
TEXT
  5
50E
330
6F
100
AcDbEntity
  8
_2-D_寸法
 62
     3
100
AcDbText
 10
204.8513655641281
 20
135.9304830843073
 30
0.0
 40
2.5
  1
477.5
 41
0.8
100
AcDbText
  0
CIRCLE
  5
50F
330
6F
100
AcDbEntity
  8
_2-D_寸法
 62
     4
100
AcDbCircle
 10
212.2263655641281
 20
135.4304830843073
 30
0.0
 40
0.4
  0
CIRCLE
  5
510
330
6F
100
AcDbEntity
  8
_2-D_寸法
 62
     4
100
AcDbCircle
 10
202.6763655641281
 20
135.4304830843073
 30
0.0
 40
0.4
  0
CIRCLE
  5
511
330
6F
100
AcDbEntity
  8
_2-D_寸法
 62
     4
100
AcDbCircle
 10
30.77636556412807
 20
123.4304830843073
 30
0.0
 40
0.4
  0
CIRCLE
  5
512
330
6F
100
AcDbEntity
  8
_2-D_寸法
 62
     4
100
AcDbCircle
 10
259.9763655641283
 20
123.4304830843073
 30
0.0
 40
0.4
  0
LINE
  5
513
330
6F
100
AcDbEntity
  8
_2-D_寸法
  6
Continuous
 62
     4
100
AcDbLine
 10
30.77636556412807
 20
123.4304830843073
 30
0.0
 11
30.77636556412807
 21
125.2505880646377
 31
0.0
  0
LINE
  5
514
330
6F
100
AcDbEntity
  8
_2-D_寸法
  6
Continuous
 62
     4
100
AcDbLine
 10
259.9763655641283
 20
123.4304830843073
 30
0.0
 11
259.9763655641283
 21
125.2505880646377
 31
0.0
  0
LINE
  5
515
330
6F
100
AcDbEntity
  8
_1-d_寸法
  6
Continuous
 62
    18
100
AcDbLine
 10
30.77636556412807
 20
123.4304830843073
 30
0.0
 11
259.9763655641283
 21
123.4304830843073
 31
0.0
  0
TEXT
  5
516
330
6F
100
AcDbEntity
  8
_2-D_寸法
 62
     3
100
AcDbText
 10
142.2513655641281
 20
123.9304830843073
 30
0.0
 40
2.5
  1
11,460
 41
0.8
100
AcDbText
  0
CIRCLE
  5
517
330
6F
100
AcDbEntity
  8
_2-D_寸法
 62
     4
100
AcDbCircle
 10
30.77636556412807
 20
127.4304830843073
 30
0.0
 40
0.4
  0
CIRCLE
  5
518
330
6F
100
AcDbEntity
  8
_2-D_寸法
 62
     4
100
AcDbCircle
 10
107.1763655641281
 20
127.4304830843073
 30
0.0
 40
0.4
  0
LINE
  5
519
330
6F
100
AcDbEntity
  8
_1-d_寸法
  6
Continuous
 62
    18
100
AcDbLine
 10
30.77636556412807
 20
127.4304830843073
 30
0.0
 11
107.1763655641281
 21
127.4304830843073
 31
0.0
  0
TEXT
  5
51A
330
6F
100
AcDbEntity
  8
_2-D_寸法
 62
     3
100
AcDbText
 10
66.37636556412811
 20
127.9304830843073
 30
0.0
 40
2.5
  1
3,820
 41
0.8
100
AcDbText
  0
CIRCLE
  5
51B
330
6F
100
AcDbEntity
  8
_2-D_寸法
 62
     4
100
AcDbCircle
 10
183.5763655641282
 20
127.4304830843073
 30
0.0
 40
0.4
  0
LINE
  5
51C
330
6F
100
AcDbEntity
  8
_1-d_寸法
  6
Continuous
 62
    18
100
AcDbLine
 10
107.1763655641281
 20
127.4304830843073
 30
0.0
 11
183.5763655641282
 21
127.4304830843073
 31
0.0
  0
TEXT
  5
51D
330
6F
100
AcDbEntity
  8
_2-D_寸法
 62
     3
100
AcDbText
 10
142.7763655641282
 20
127.9304830843073
 30
0.0
 40
2.5
  1
3,820
 41
0.8
100
AcDbText
  0
CIRCLE
  5
51E
330
6F
100
AcDbEntity
  8
_2-D_寸法
 62
     4
100
AcDbCircle
 10
259.9763655641283
 20
127.4304830843073
 30
0.0
 40
0.4
  0
LINE
  5
51F
330
6F
100
AcDbEntity
  8
_1-d_寸法
  6
Continuous
 62
    18
100
AcDbLine
 10
183.5763655641282
 20
127.4304830843073
 30
0.0
 11
259.9763655641283
 21
127.4304830843073
 31
0.0
  0
TEXT
  5
520
330
6F
100
AcDbEntity
  8
_2-D_寸法
 62
     3
100
AcDbText
 10
219.1763655641283
 20
127.9304830843073
 30
0.0
 40
2.5
  1
3,820
 41
0.8
100
AcDbText
  0
CIRCLE
  5
521
330
6F
100
AcDbEntity
  8
_2-D_寸法
 62
     4
100
AcDbCircle
 10
30.77636556412807
 20
131.4304830843073
 30
0.0
 40
0.4
  0
CIRCLE
  5
522
330
6F
100
AcDbEntity
  8
_2-D_寸法
 62
     4
100
AcDbCircle
 10
49.8763655641282
 20
131.4304830843073
 30
0.0
 40
0.4
  0
LINE
  5
523
330
6F
100
AcDbEntity
  8
_2-D_寸法
  6
Continuous
 62
     4
100
AcDbLine
 10
30.77636556412807
 20
131.4304830843073
 30
0.0
 11
30.77636556412807
 21
133.9104075406235
 31
0.0
  0
LINE
  5
524
330
6F
100
AcDbEntity
  8
_2-D_寸法
  6
Continuous
 62
     4
100
AcDbLine
 10
49.8763655641282
 20
131.4304830843073
 30
0.0
 11
49.8763655641282
 21
133.9104075406235
 31
0.0
  0
LINE
  5
525
330
6F
100
AcDbEntity
  8
_1-d_寸法
  6
Continuous
 62
    18
100
AcDbLine
 10
30.77636556412807
 20
131.4304830843073
 30
0.0
 11
49.8763655641282
 21
131.4304830843073
 31
0.0
  0
TEXT
  5
526
330
6F
100
AcDbEntity
  8
_2-D_寸法
 62
     3
100
AcDbText
 10
38.77636556412813
 20
131.9304830843073
 30
0.0
 40
2.5
  1
955
 41
0.8
100
AcDbText
  0
CIRCLE
  5
527
330
6F
100
AcDbEntity
  8
_2-D_寸法
 62
     4
100
AcDbCircle
 10
68.97636556412823
 20
131.4304830843073
 30
0.0
 40
0.4
  0
LINE
  5
528
330
6F
100
AcDbEntity
  8
_2-D_寸法
  6
Continuous
 62
     4
100
AcDbLine
 10
68.97636556412823
 20
131.4304830843073
 30
0.0
 11
68.97636556412823
 21
133.9104075406235
 31
0.0
  0
LINE
  5
529
330
6F
100
AcDbEntity
  8
_1-d_寸法
  6
Continuous
 62
    18
100
AcDbLine
 10
49.8763655641282
 20
131.4304830843073
 30
0.0
 11
68.97636556412823
 21
131.4304830843073
 31
0.0
  0
TEXT
  5
52A
330
6F
100
AcDbEntity
  8
_2-D_寸法
 62
     3
100
AcDbText
 10
57.8763655641282
 20
131.9304830843073
 30
0.0
 40
2.5
  1
955
 41
0.8
100
AcDbText
  0
CIRCLE
  5
52B
330
6F
100
AcDbEntity
  8
_2-D_寸法
 62
     4
100
AcDbCircle
 10
88.07636556412827
 20
131.4304830843073
 30
0.0
 40
0.4
  0
LINE
  5
52C
330
6F
100
AcDbEntity
  8
_2-D_寸法
  6
Continuous
 62
     4
100
AcDbLine
 10
88.07636556412827
 20
131.4304830843073
 30
0.0
 11
88.07636556412827
 21
133.9104075406235
 31
0.0
  0
LINE
  5
52D
330
6F
100
AcDbEntity
  8
_1-d_寸法
  6
Continuous
 62
    18
100
AcDbLine
 10
68.97636556412823
 20
131.4304830843073
 30
0.0
 11
88.07636556412827
 21
131.4304830843073
 31
0.0
  0
TEXT
  5
52E
330
6F
100
AcDbEntity
  8
_2-D_寸法
 62
     3
100
AcDbText
 10
76.97636556412823
 20
131.9304830843073
 30
0.0
 40
2.5
  1
955
 41
0.8
100
AcDbText
  0
CIRCLE
  5
52F
330
6F
100
AcDbEntity
  8
_2-D_寸法
 62
     4
100
AcDbCircle
 10
107.1763655641281
 20
131.4304830843073
 30
0.0
 40
0.4
  0
LINE
  5
530
330
6F
100
AcDbEntity
  8
_2-D_寸法
  6
Continuous
 62
     4
100
AcDbLine
 10
107.1763655641281
 20
131.4304830843073
 30
0.0
 11
107.1763655641281
 21
133.9104075406235
 31
0.0
  0
LINE
  5
531
330
6F
100
AcDbEntity
  8
_1-d_寸法
  6
Continuous
 62
    18
100
AcDbLine
 10
88.07636556412827
 20
131.4304830843073
 30
0.0
 11
107.1763655641281
 21
131.4304830843073
 31
0.0
  0
TEXT
  5
532
330
6F
100
AcDbEntity
  8
_2-D_寸法
 62
     3
100
AcDbText
 10
96.0763655641282
 20
131.9304830843073
 30
0.0
 40
2.5
  1
955
 41
0.8
100
AcDbText
  0
CIRCLE
  5
533
330
6F
100
AcDbEntity
  8
_2-D_寸法
 62
     4
100
AcDbCircle
 10
126.2763655641282
 20
131.4304830843073
 30
0.0
 40
0.4
  0
LINE
  5
534
330
6F
100
AcDbEntity
  8
_2-D_寸法
  6
Continuous
 62
     4
100
AcDbLine
 10
126.2763655641282
 20
131.4304830843073
 30
0.0
 11
126.2763655641282
 21
133.9104075406235
 31
0.0
  0
LINE
  5
535
330
6F
100
AcDbEntity
  8
_1-d_寸法
  6
Continuous
 62
    18
100
AcDbLine
 10
107.1763655641281
 20
131.4304830843073
 30
0.0
 11
126.2763655641282
 21
131.4304830843073
 31
0.0
  0
TEXT
  5
536
330
6F
100
AcDbEntity
  8
_2-D_寸法
 62
     3
100
AcDbText
 10
115.1763655641282
 20
131.9304830843073
 30
0.0
 40
2.5
  1
955
 41
0.8
100
AcDbText
  0
CIRCLE
  5
537
330
6F
100
AcDbEntity
  8
_2-D_寸法
 62
     4
100
AcDbCircle
 10
145.3763655641282
 20
131.4304830843073
 30
0.0
 40
0.4
  0
LINE
  5
538
330
6F
100
AcDbEntity
  8
_2-D_寸法
  6
Continuous
 62
     4
100
AcDbLine
 10
145.3763655641282
 20
131.4304830843073
 30
0.0
 11
145.3763655641282
 21
133.9104075406235
 31
0.0
  0
LINE
  5
539
330
6F
100
AcDbEntity
  8
_1-d_寸法
  6
Continuous
 62
    18
100
AcDbLine
 10
126.2763655641282
 20
131.4304830843073
 30
0.0
 11
145.3763655641282
 21
131.4304830843073
 31
0.0
  0
TEXT
  5
53A
330
6F
100
AcDbEntity
  8
_2-D_寸法
 62
     3
100
AcDbText
 10
134.2763655641282
 20
131.9304830843073
 30
0.0
 40
2.5
  1
955
 41
0.8
100
AcDbText
  0
CIRCLE
  5
53B
330
6F
100
AcDbEntity
  8
_2-D_寸法
 62
     4
100
AcDbCircle
 10
164.4763655641282
 20
131.4304830843073
 30
0.0
 40
0.4
  0
LINE
  5
53C
330
6F
100
AcDbEntity
  8
_2-D_寸法
  6
Continuous
 62
     4
100
AcDbLine
 10
164.4763655641282
 20
131.4304830843073
 30
0.0
 11
164.4763655641282
 21
133.9104075406235
 31
0.0
  0
LINE
  5
53D
330
6F
100
AcDbEntity
  8
_1-d_寸法
  6
Continuous
 62
    18
100
AcDbLine
 10
145.3763655641282
 20
131.4304830843073
 30
0.0
 11
164.4763655641282
 21
131.4304830843073
 31
0.0
  0
TEXT
  5
53E
330
6F
100
AcDbEntity
  8
_2-D_寸法
 62
     3
100
AcDbText
 10
153.3763655641282
 20
131.9304830843073
 30
0.0
 40
2.5
  1
955
 41
0.8
100
AcDbText
  0
CIRCLE
  5
53F
330
6F
100
AcDbEntity
  8
_2-D_寸法
 62
     4
100
AcDbCircle
 10
183.5763655641282
 20
131.4304830843073
 30
0.0
 40
0.4
  0
LINE
  5
540
330
6F
100
AcDbEntity
  8
_2-D_寸法
  6
Continuous
 62
     4
100
AcDbLine
 10
183.5763655641282
 20
131.4304830843073
 30
0.0
 11
183.5763655641282
 21
133.9104075406235
 31
0.0
  0
LINE
  5
541
330
6F
100
AcDbEntity
  8
_1-d_寸法
  6
Continuous
 62
    18
100
AcDbLine
 10
164.4763655641282
 20
131.4304830843073
 30
0.0
 11
183.5763655641282
 21
131.4304830843073
 31
0.0
  0
TEXT
  5
542
330
6F
100
AcDbEntity
  8
_2-D_寸法
 62
     3
100
AcDbText
 10
172.4763655641282
 20
131.9304830843073
 30
0.0
 40
2.5
  1
955
 41
0.8
100
AcDbText
  0
CIRCLE
  5
543
330
6F
100
AcDbEntity
  8
_2-D_寸法
 62
     4
100
AcDbCircle
 10
202.6763655641283
 20
131.4304830843073
 30
0.0
 40
0.4
  0
LINE
  5
544
330
6F
100
AcDbEntity
  8
_2-D_寸法
  6
Continuous
 62
     4
100
AcDbLine
 10
202.6763655641283
 20
131.4304830843073
 30
0.0
 11
202.6763655641283
 21
133.9104075406235
 31
0.0
  0
LINE
  5
545
330
6F
100
AcDbEntity
  8
_1-d_寸法
  6
Continuous
 62
    18
100
AcDbLine
 10
183.5763655641282
 20
131.4304830843073
 30
0.0
 11
202.6763655641283
 21
131.4304830843073
 31
0.0
  0
TEXT
  5
546
330
6F
100
AcDbEntity
  8
_2-D_寸法
 62
     3
100
AcDbText
 10
191.5763655641282
 20
131.9304830843073
 30
0.0
 40
2.5
  1
955
 41
0.8
100
AcDbText
  0
CIRCLE
  5
547
330
6F
100
AcDbEntity
  8
_2-D_寸法
 62
     4
100
AcDbCircle
 10
221.7763655641281
 20
131.4304830843073
 30
0.0
 40
0.4
  0
LINE
  5
548
330
6F
100
AcDbEntity
  8
_2-D_寸法
  6
Continuous
 62
     4
100
AcDbLine
 10
221.7763655641281
 20
131.4304830843073
 30
0.0
 11
221.7763655641281
 21
133.9104075406235
 31
0.0
  0
LINE
  5
549
330
6F
100
AcDbEntity
  8
_1-d_寸法
  6
Continuous
 62
    18
100
AcDbLine
 10
202.6763655641283
 20
131.4304830843073
 30
0.0
 11
221.7763655641281
 21
131.4304830843073
 31
0.0
  0
TEXT
  5
54A
330
6F
100
AcDbEntity
  8
_2-D_寸法
 62
     3
100
AcDbText
 10
210.6763655641283
 20
131.9304830843073
 30
0.0
 40
2.5
  1
955
 41
0.8
100
AcDbText
  0
CIRCLE
  5
54B
330
6F
100
AcDbEntity
  8
_2-D_寸法
 62
     4
100
AcDbCircle
 10
240.8763655641282
 20
131.4304830843073
 30
0.0
 40
0.4
  0
LINE
  5
54C
330
6F
100
AcDbEntity
  8
_2-D_寸法
  6
Continuous
 62
     4
100
AcDbLine
 10
240.8763655641282
 20
131.4304830843073
 30
0.0
 11
240.8763655641282
 21
133.9104075406235
 31
0.0
  0
LINE
  5
54D
330
6F
100
AcDbEntity
  8
_1-d_寸法
  6
Continuous
 62
    18
100
AcDbLine
 10
221.7763655641281
 20
131.4304830843073
 30
0.0
 11
240.8763655641282
 21
131.4304830843073
 31
0.0
  0
TEXT
  5
54E
330
6F
100
AcDbEntity
  8
_2-D_寸法
 62
     3
100
AcDbText
 10
229.7763655641281
 20
131.9304830843073
 30
0.0
 40
2.5
  1
955
 41
0.8
100
AcDbText
  0
CIRCLE
  5
54F
330
6F
100
AcDbEntity
  8
_2-D_寸法
 62
     4
100
AcDbCircle
 10
259.9763655641283
 20
131.4304830843073
 30
0.0
 40
0.4
  0
LINE
  5
550
330
6F
100
AcDbEntity
  8
_2-D_寸法
  6
Continuous
 62
     4
100
AcDbLine
 10
259.9763655641283
 20
131.4304830843073
 30
0.0
 11
259.9763655641283
 21
133.9104075406235
 31
0.0
  0
LINE
  5
551
330
6F
100
AcDbEntity
  8
_1-d_寸法
  6
Continuous
 62
    18
100
AcDbLine
 10
240.8763655641282
 20
131.4304830843073
 30
0.0
 11
259.9763655641283
 21
131.4304830843073
 31
0.0
  0
TEXT
  5
552
330
6F
100
AcDbEntity
  8
_2-D_寸法
 62
     3
100
AcDbText
 10
248.8763655641282
 20
131.9304830843073
 30
0.0
 40
2.5
  1
955
 41
0.8
100
AcDbText
  0
CIRCLE
  5
553
330
6F
100
AcDbEntity
  8
_2-D_寸法
 62
     4
100
AcDbCircle
 10
68.97636556412834
 20
135.4304830843073
 30
0.0
 40
0.4
  0
CIRCLE
  5
554
330
6F
100
AcDbEntity
  8
_2-D_寸法
 62
     4
100
AcDbCircle
 10
78.52636556412829
 20
135.4304830843073
 30
0.0
 40
0.4
  0
LINE
  5
555
330
6F
100
AcDbEntity
  8
_1-d_寸法
  6
Continuous
 62
    18
100
AcDbLine
 10
68.97636556412834
 20
135.4304830843073
 30
0.0
 11
78.52636556412829
 21
135.4304830843073
 31
0.0
  0
TEXT
  5
556
330
6F
100
AcDbEntity
  8
_2-D_寸法
 62
     3
100
AcDbText
 10
71.15136556412832
 20
135.9304830843073
 30
0.0
 40
2.5
  1
477.5
 41
0.8
100
AcDbText
  0
CIRCLE
  5
557
330
6F
100
AcDbEntity
  8
_2-D_寸法
 62
     4
100
AcDbCircle
 10
88.07636556412827
 20
135.4304830843073
 30
0.0
 40
0.4
  0
LINE
  5
558
330
6F
100
AcDbEntity
  8
_1-d_寸法
  6
Continuous
 62
    18
100
AcDbLine
 10
78.52636556412829
 20
135.4304830843073
 30
0.0
 11
88.07636556412827
 21
135.4304830843073
 31
0.0
  0
TEXT
  5
559
330
6F
100
AcDbEntity
  8
_2-D_寸法
 62
     3
100
AcDbText
 10
80.7013655641283
 20
135.9304830843073
 30
0.0
 40
2.5
  1
477.5
 41
0.8
100
AcDbText
  0
CIRCLE
  5
55A
330
6F
100
AcDbEntity
  8
_2-D_寸法
 62
     4
100
AcDbCircle
 10
286.3928571428571
 20
165.2102943643073
 30
0.0
 40
0.4
  0
LINE
  5
55B
330
6F
100
AcDbEntity
  8
_2-D_寸法
  6
Continuous
 62
     4
100
AcDbLine
 10
286.3928571428571
 20
207.2102943643073
 30
0.0
 11
285.875219052652
 21
205.2784427117292
 31
0.0
  0
LINE
  5
55C
330
6F
100
AcDbEntity
  8
_2-D_寸法
  6
Continuous
 62
     4
100
AcDbLine
 10
286.3928571428571
 20
207.2102943643073
 30
0.0
 11
286.9104952330622
 21
205.2784427117292
 31
0.0
  0
LINE
  5
55D
330
6F
100
AcDbEntity
  8
_2-D_寸法
  6
Continuous
 62
     4
100
AcDbLine
 10
286.3928571428571
 20
165.2102943643073
 30
0.0
 11
277.1844234838474
 21
165.2102943643073
 31
0.0
  0
LINE
  5
55E
330
6F
100
AcDbEntity
  8
_2-D_寸法
  6
Continuous
 62
     4
100
AcDbLine
 10
286.3928571428571
 20
207.2102943643073
 30
0.0
 11
277.1844234838474
 21
207.2102943643073
 31
0.0
  0
LINE
  5
55F
330
6F
100
AcDbEntity
  8
_2-D_寸法
  6
Continuous
 62
    18
100
AcDbLine
 10
286.3928571428571
 20
165.2102943643073
 30
0.0
 11
286.3928571428571
 21
207.2102943643073
 31
0.0
  0
TEXT
  5
560
330
6F
100
AcDbEntity
  8
_2-D_寸法
 62
     3
100
AcDbText
 10
286.8928571428572
 20
207.7102943643073
 30
0.0
 40
2.5
  1
2,100
 41
0.8
100
AcDbText
  0
LINE
  5
561
330
6F
100
AcDbEntity
  8
_2-D_寸法
  6
Continuous
 62
     4
100
AcDbLine
 10
286.3928571428571
 20
237.2102943643073
 30
0.0
 11
285.875219052652
 21
235.2784427117292
 31
0.0
  0
LINE
  5
562
330
6F
100
AcDbEntity
  8
_2-D_寸法
  6
Continuous
 62
     4
100
AcDbLine
 10
286.3928571428571
 20
237.2102943643073
 30
0.0
 11
286.9104952330622
 21
235.2784427117292
 31
0.0
  0
LINE
  5
563
330
6F
100
AcDbEntity
  8
_2-D_寸法
  6
Continuous
 62
     4
100
AcDbLine
 10
286.3928571428571
 20
237.2102943643073
 30
0.0
 11
277.1844234838474
 21
237.2102943643073
 31
0.0
  0
LINE
  5
564
330
6F
100
AcDbEntity
  8
_2-D_寸法
  6
Continuous
 62
    18
100
AcDbLine
 10
286.3928571428571
 20
165.2102943643073
 30
0.0
 11
286.3928571428571
 21
237.2102943643073
 31
0.0
  0
TEXT
  5
565
330
6F
100
AcDbEntity
  8
_2-D_寸法
 62
     3
100
AcDbText
 10
286.8928571428572
 20
237.7102943643073
 30
0.0
 40
2.5
  1
3,600
 41
0.8
100
AcDbText
  0
CIRCLE
  5
566
330
6F
100
AcDbEntity
  8
_2-D_寸法
 62
     4
100
AcDbCircle
 10
286.3928571428571
 20
165.2102943643073
 30
0.0
 40
0.4
  0
LINE
  5
567
330
6F
100
AcDbEntity
  8
_2-D_寸法
  6
Continuous
 62
     4
100
AcDbLine
 10
286.3928571428571
 20
165.2102943643073
 30
0.0
 11
278.3096068394173
 21
165.2102943643073
 31
0.0
  0
LINE
  5
568
330
6F
100
AcDbEntity
  8
_2-D_寸法
  6
Continuous
 62
     4
100
AcDbLine
 10
286.3928571428571
 20
212.2102943651273
 30
0.0
 11
285.875219052652
 21
210.2784427125491
 31
0.0
  0
LINE
  5
569
330
6F
100
AcDbEntity
  8
_2-D_寸法
  6
Continuous
 62
     4
100
AcDbLine
 10
286.3928571428571
 20
212.2102943651273
 30
0.0
 11
286.9104952330622
 21
210.2784427125491
 31
0.0
  0
LINE
  5
56A
330
6F
100
AcDbEntity
  8
_2-D_寸法
  6
Continuous
 62
     4
100
AcDbLine
 10
286.3928571428571
 20
212.2102943651273
 30
0.0
 11
278.3096068394173
 21
212.2102943651273
 31
0.0
  0
LINE
  5
56B
330
6F
100
AcDbEntity
  8
_2-D_寸法
  6
Continuous
 62
    18
100
AcDbLine
 10
286.3928571428571
 20
165.2102943643073
 30
0.0
 11
286.3928571428571
 21
212.2102943651273
 31
0.0
  0
TEXT
  5
56C
330
6F
100
AcDbEntity
  8
_2-D_寸法
 62
     3
100
AcDbText
 10
286.8928571428572
 20
212.7102943651272
 30
0.0
 40
2.5
  1
2,350
 41
0.8
100
AcDbText
  0
CIRCLE
  5
56D
330
6F
100
AcDbEntity
  8
_2-D_寸法
 62
     4
100
AcDbCircle
 10
286.3928571428571
 20
165.2102943643073
 30
0.0
 40
0.4
  0
LINE
  5
56E
330
6F
100
AcDbEntity
  8
_2-D_寸法
  6
Continuous
 62
     4
100
AcDbLine
 10
286.3928571428571
 20
265.8602943643073
 30
0.0
 11
285.875219052652
 21
263.9284427117292
 31
0.0
  0
LINE
  5
56F
330
6F
100
AcDbEntity
  8
_2-D_寸法
  6
Continuous
 62
     4
100
AcDbLine
 10
286.3928571428571
 20
265.8602943643073
 30
0.0
 11
286.9104952330622
 21
263.9284427117292
 31
0.0
  0
LINE
  5
570
330
6F
100
AcDbEntity
  8
_2-D_寸法
  6
Continuous
 62
     4
100
AcDbLine
 10
286.3928571428571
 20
165.2102943643073
 30
0.0
 11
280.1936914396936
 21
165.2102943643073
 31
0.0
  0
LINE
  5
571
330
6F
100
AcDbEntity
  8
_2-D_寸法
  6
Continuous
 62
     4
100
AcDbLine
 10
286.3928571428571
 20
265.8602943643073
 30
0.0
 11
280.1936914396936
 21
265.8602943643073
 31
0.0
  0
LINE
  5
572
330
6F
100
AcDbEntity
  8
_2-D_寸法
  6
Continuous
 62
    18
100
AcDbLine
 10
286.3928571428571
 20
165.2102943643073
 30
0.0
 11
286.3928571428571
 21
265.8602943643073
 31
0.0
  0
TEXT
  5
573
330
6F
100
AcDbEntity
  8
_2-D_寸法
 62
     3
100
AcDbText
 10
286.8928571428572
 20
266.3602943643073
 30
0.0
 40
2.5
  1
5,032.5
 41
0.8
100
AcDbText
  0
CIRCLE
  5
574
330
6F
100
AcDbEntity
  8
_2-D_寸法
 62
     4
100
AcDbCircle
 10
286.3928571428571
 20
165.2102943643073
 30
0.0
 40
0.4
  0
LINE
  5
575
330
6F
100
AcDbEntity
  8
_2-D_寸法
  6
Continuous
 62
     4
100
AcDbLine
 10
286.3928571428571
 20
163.7102943643073
 30
0.0
 11
286.9104952330622
 21
165.6421460168854
 31
0.0
  0
LINE
  5
576
330
6F
100
AcDbEntity
  8
_2-D_寸法
  6
Continuous
 62
     4
100
AcDbLine
 10
286.3928571428571
 20
163.7102943643073
 30
0.0
 11
285.875219052652
 21
165.6421460168854
 31
0.0
  0
LINE
  5
577
330
6F
100
AcDbEntity
  8
_2-D_寸法
  6
Continuous
 62
     4
100
AcDbLine
 10
286.3928571428571
 20
165.2102943643073
 30
0.0
 11
279.8171722253094
 21
165.2102943643073
 31
0.0
  0
LINE
  5
578
330
6F
100
AcDbEntity
  8
_2-D_寸法
  6
Continuous
 62
     4
100
AcDbLine
 10
286.3928571428571
 20
163.7102943643073
 30
0.0
 11
279.8171722253094
 21
163.7102943643073
 31
0.0
  0
LINE
  5
579
330
6F
100
AcDbEntity
  8
_2-D_寸法
  6
Continuous
 62
     4
100
AcDbLine
 10
286.3928571428571
 20
156.8102943643073
 30
0.0
 11
286.9104952330622
 21
158.7421460168854
 31
0.0
  0
LINE
  5
57A
330
6F
100
AcDbEntity
  8
_2-D_寸法
  6
Continuous
 62
     4
100
AcDbLine
 10
286.3928571428571
 20
156.8102943643073
 30
0.0
 11
285.875219052652
 21
158.7421460168854
 31
0.0
  0
LINE
  5
57B
330
6F
100
AcDbEntity
  8
_2-D_寸法
  6
Continuous
 62
     4
100
AcDbLine
 10
286.3928571428571
 20
156.8102943643073
 30
0.0
 11
279.8171722253094
 21
156.8102943643073
 31
0.0
  0
LINE
  5
57C
330
6F
100
AcDbEntity
  8
_2-D_寸法
  6
Continuous
 62
    18
100
AcDbLine
 10
286.3928571428571
 20
165.2102943643073
 30
0.0
 11
286.3928571428571
 21
156.8102943643073
 31
0.0
  0
TEXT
  5
57D
330
6F
100
AcDbEntity
  8
_2-D_寸法
 62
     3
100
AcDbText
 10
286.8928571428572
 20
157.3102943643073
 30
0.0
 40
2.5
  1
420
 41
0.8
100
AcDbText
  0
LINE
  5
57E
330
6F
100
AcDbEntity
  8
_2-D_寸法
  6
Continuous
 62
     4
100
AcDbLine
 10
286.3928571428571
 20
153.2102943643073
 30
0.0
 11
286.9104952330622
 21
155.1421460168854
 31
0.0
  0
LINE
  5
57F
330
6F
100
AcDbEntity
  8
_2-D_寸法
  6
Continuous
 62
     4
100
AcDbLine
 10
286.3928571428571
 20
153.2102943643073
 30
0.0
 11
285.875219052652
 21
155.1421460168854
 31
0.0
  0
LINE
  5
580
330
6F
100
AcDbEntity
  8
_2-D_寸法
  6
Continuous
 62
     4
100
AcDbLine
 10
286.3928571428571
 20
153.2102943643073
 30
0.0
 11
279.8171722253094
 21
153.2102943643073
 31
0.0
  0
LINE
  5
581
330
6F
100
AcDbEntity
  8
_2-D_寸法
  6
Continuous
 62
    18
100
AcDbLine
 10
286.3928571428571
 20
165.2102943643073
 30
0.0
 11
286.3928571428571
 21
153.2102943643073
 31
0.0
  0
TEXT
  5
582
330
6F
100
AcDbEntity
  8
_2-D_寸法
 62
     3
100
AcDbText
 10
286.8928571428572
 20
153.7102943643073
 30
0.0
 40
2.5
  1
600
 41
0.8
100
AcDbText
  0
LINE
  5
583
330
6F
100
AcDbEntity
  8
_2-D_寸法
  6
Continuous
 62
    18
100
AcDbLine
 10
286.3928571428571
 20
165.2102943643073
 30
0.0
 11
286.3928571428571
 21
163.7102943643073
 31
0.0
  0
TEXT
  5
584
330
6F
100
AcDbEntity
  8
_2-D_寸法
 62
     3
100
AcDbText
 10
286.8311511819839
 20
162.5626695453541
 30
0.0
 40
2.5
  1
75
 41
0.8
100
AcDbText
  0
CIRCLE
  5
585
330
6F
100
AcDbEntity
  8
_2-D_寸法
 62
     4
100
AcDbCircle
 10
286.3928571428571
 20
165.2102943643073
 30
0.0
 40
0.4
  0
LINE
  5
586
330
6F
100
AcDbEntity
  8
_2-D_寸法
  6
Continuous
 62
     4
100
AcDbLine
 10
286.3928571428571
 20
237.2102943643073
 30
0.0
 11
285.8752190526521
 21
235.2784427117292
 31
0.0
  0
LINE
  5
587
330
6F
100
AcDbEntity
  8
_2-D_寸法
  6
Continuous
 62
     4
100
AcDbLine
 10
286.3928571428571
 20
237.2102943643073
 30
0.0
 11
286.9104952330622
 21
235.2784427117292
 31
0.0
  0
LINE
  5
588
330
6F
100
AcDbEntity
  8
_2-D_寸法
  6
Continuous
 62
     4
100
AcDbLine
 10
286.3928571428571
 20
165.2102943643073
 30
0.0
 11
277.1844234838474
 21
165.2102943643073
 31
0.0
  0
LINE
  5
589
330
6F
100
AcDbEntity
  8
_2-D_寸法
  6
Continuous
 62
     4
100
AcDbLine
 10
286.3928571428571
 20
237.2102943643073
 30
0.0
 11
277.1844234838474
 21
237.2102943643073
 31
0.0
  0
LINE
  5
58A
330
6F
100
AcDbEntity
  8
_2-D_寸法
  6
Continuous
 62
    18
100
AcDbLine
 10
286.3928571428571
 20
165.2102943643073
 30
0.0
 11
286.3928571428571
 21
237.2102943643073
 31
0.0
  0
TEXT
  5
58B
330
6F
100
AcDbEntity
  8
_2-D_寸法
 62
     3
100
AcDbText
 10
286.8928571428572
 20
237.7102943643073
 30
0.0
 40
2.5
  1
3,600
 41
0.8
100
AcDbText
  0
CIRCLE
  5
58C
330
6F
100
AcDbEntity
  8
_2-D_寸法
 62
     4
100
AcDbCircle
 10
286.3928571428571
 20
165.2102943643073
 30
0.0
 40
0.4
  0
LINE
  5
58D
330
6F
100
AcDbEntity
  8
_2-D_寸法
  6
Continuous
 62
     4
100
AcDbLine
 10
286.3928571428571
 20
254.5102943667425
 30
0.0
 11
285.8752190526521
 21
252.5784427141644
 31
0.0
  0
LINE
  5
58E
330
6F
100
AcDbEntity
  8
_2-D_寸法
  6
Continuous
 62
     4
100
AcDbLine
 10
286.3928571428571
 20
254.5102943667425
 30
0.0
 11
286.9104952330622
 21
252.5784427141644
 31
0.0
  0
LINE
  5
58F
330
6F
100
AcDbEntity
  8
_2-D_寸法
  6
Continuous
 62
     4
100
AcDbLine
 10
286.3928571428571
 20
165.2102943643073
 30
0.0
 11
280.1936914396936
 21
165.2102943643073
 31
0.0
  0
LINE
  5
590
330
6F
100
AcDbEntity
  8
_2-D_寸法
  6
Continuous
 62
     4
100
AcDbLine
 10
286.3928571428571
 20
254.5102943667425
 30
0.0
 11
280.1936914396936
 21
254.5102943667425
 31
0.0
  0
LINE
  5
591
330
6F
100
AcDbEntity
  8
_2-D_寸法
  6
Continuous
 62
    18
100
AcDbLine
 10
286.3928571428571
 20
165.2102943643073
 30
0.0
 11
286.3928571428571
 21
254.5102943667425
 31
0.0
  0
TEXT
  5
592
330
6F
100
AcDbEntity
  8
_2-D_寸法
 62
     3
100
AcDbText
 10
286.8928571428572
 20
255.0102943667425
 30
0.0
 40
2.5
  1
4,465
 41
0.8
100
AcDbText
  0
CIRCLE
  5
593
330
6F
100
AcDbEntity
  8
_2-D_寸法
 62
     4
100
AcDbCircle
 10
113.071476761984
 20
165.2102943643073
 30
0.0
 40
0.4
  0
CIRCLE
  5
594
330
6F
100
AcDbEntity
  8
_2-D_寸法
 62
     4
100
AcDbCircle
 10
113.071476761984
 20
201.2102943643073
 30
0.0
 40
0.4
  0
LINE
  5
595
330
6F
100
AcDbEntity
  8
_2-D_寸法
  6
Continuous
 62
    18
100
AcDbLine
 10
113.071476761984
 20
165.2102943643073
 30
0.0
 11
113.071476761984
 21
201.2102943643073
 31
0.0
  0
TEXT
  5
596
330
6F
100
AcDbEntity
  8
_2-D_寸法
 62
     3
100
AcDbText
 10
112.571476761984
 20
180.4102943643073
 30
0.0
 40
2.5
  1
1,800
 50
90.0
 41
0.8
100
AcDbText
  0
CIRCLE
  5
597
330
6F
100
AcDbEntity
  8
_2-D_寸法
 62
     4
100
AcDbCircle
 10
118.8414642193732
 20
165.2102943643073
 30
0.0
 40
0.4
  0
CIRCLE
  5
598
330
6F
100
AcDbEntity
  8
_2-D_寸法
 62
     4
100
AcDbCircle
 10
118.8414642193732
 20
218.2102943643073
 30
0.0
 40
0.4
  0
LINE
  5
599
330
6F
100
AcDbEntity
  8
_2-D_寸法
  6
Continuous
 62
    18
100
AcDbLine
 10
118.8414642193732
 20
165.2102943643073
 30
0.0
 11
118.8414642193732
 21
218.2102943643073
 31
0.0
  0
TEXT
  5
59A
330
6F
100
AcDbEntity
  8
_2-D_寸法
 62
     3
100
AcDbText
 10
118.3414642193733
 20
188.9102943643073
 30
0.0
 40
2.5
  1
2,650
 50
90.0
 41
0.8
100
AcDbText
  0
CIRCLE
  5
59B
330
6F
100
AcDbEntity
  8
_2-D_寸法
 62
     4
100
AcDbCircle
 10
49.8763655641282
 20
273.1657000146011
 30
0.0
 40
0.4
  0
LINE
  5
59C
330
6F
100
AcDbEntity
  8
_2-D_寸法
  6
Continuous
 62
     4
100
AcDbLine
 10
49.8763655641282
 20
273.1657000146011
 30
0.0
 11
49.8763655641282
 21
263.3868143851332
 31
0.0
  0
CIRCLE
  5
59D
330
6F
100
AcDbEntity
  8
_2-D_寸法
 62
     4
100
AcDbCircle
 10
240.8763655641282
 20
273.1657000146011
 30
0.0
 40
0.4
  0
LINE
  5
59E
330
6F
100
AcDbEntity
  8
_2-D_寸法
  6
Continuous
 62
     4
100
AcDbLine
 10
240.8763655641282
 20
273.1657000146011
 30
0.0
 11
240.8763655641282
 21
263.3868143851332
 31
0.0
  0
CIRCLE
  5
59F
330
6F
100
AcDbEntity
  8
_2-D_寸法
 62
     4
100
AcDbCircle
 10
254.8763655641282
 20
273.1657000146011
 30
0.0
 40
0.4
  0
LINE
  5
5A0
330
6F
100
AcDbEntity
  8
_2-D_寸法
  6
Continuous
 62
     4
100
AcDbLine
 10
254.8763655641282
 20
273.1657000146011
 30
0.0
 11
254.8763655641282
 21
263.3868143851332
 31
0.0
  0
LINE
  5
5A1
330
6F
100
AcDbEntity
  8
_2-D_寸法
  6
Continuous
 62
    18
100
AcDbLine
 10
240.8763655641282
 20
273.1657000146011
 30
0.0
 11
254.8763655641282
 21
273.1657000146011
 31
0.0
  0
TEXT
  5
5A2
330
6F
100
AcDbEntity
  8
_2-D_寸法
 62
     3
100
AcDbText
 10
246.2263655641283
 20
273.6657000146012
 30
0.0
 40
2.5
  1
700
 41
0.8
100
AcDbText
  0
CIRCLE
  5
5A3
330
6F
100
AcDbEntity
  8
_2-D_寸法
 62
     4
100
AcDbCircle
 10
35.87636556412821
 20
273.1657000146011
 30
0.0
 40
0.4
  0
LINE
  5
5A4
330
6F
100
AcDbEntity
  8
_2-D_寸法
  6
Continuous
 62
     4
100
AcDbLine
 10
35.87636556412821
 20
273.1657000146011
 30
0.0
 11
35.87636556412821
 21
263.3868143851332
 31
0.0
  0
LINE
  5
5A5
330
6F
100
AcDbEntity
  8
_2-D_寸法
  6
Continuous
 62
    18
100
AcDbLine
 10
35.87636556412821
 20
273.1657000146011
 30
0.0
 11
49.8763655641282
 21
273.1657000146011
 31
0.0
  0
TEXT
  5
5A6
330
6F
100
AcDbEntity
  8
_2-D_寸法
 62
     3
100
AcDbText
 10
41.2263655641282
 20
273.6657000146012
 30
0.0
 40
2.5
  1
700
 41
0.8
100
AcDbText
  0
LINE
  5
5A7
330
6F
100
AcDbEntity
  8
ADD_LINE
  6
DOT
 62
     9
100
AcDbLine
 10
259.9763655641283
 20
84.27877532056015
 30
0.0
 11
259.9763655641283
 21
75.49588791222369
 31
0.0
  0
LINE
  5
5A8
330
6F
100
AcDbEntity
  8
ADD_LINE
  6
DOT
 62
     9
100
AcDbLine
 10
264.1733956237249
 20
80.0
 30
0.0
 11
255.1813918485232
 21
80.0
 31
0.0
  0
LINE
  5
5A9
330
6F
100
AcDbEntity
  8
ADD_LINE
  6
DOT
 62
     9
100
AcDbLine
 10
240.8763655641283
 20
84.27877532056015
 30
0.0
 11
240.8763655641283
 21
75.49588791222369
 31
0.0
  0
LINE
  5
5AA
330
6F
100
AcDbEntity
  8
ADD_LINE
  6
DOT
 62
     9
100
AcDbLine
 10
245.0733956237248
 20
80.0
 30
0.0
 11
236.0813918485233
 21
80.0
 31
0.0
  0
LINE
  5
5AB
330
6F
100
AcDbEntity
  8
ADD_LINE
  6
DOT
 62
     9
100
AcDbLine
 10
221.7763655641283
 20
84.27877532056015
 30
0.0
 11
221.7763655641283
 21
75.49588791222369
 31
0.0
  0
LINE
  5
5AC
330
6F
100
AcDbEntity
  8
ADD_LINE
  6
DOT
 62
     9
100
AcDbLine
 10
225.9733956237249
 20
80.0
 30
0.0
 11
216.9813918485233
 21
80.0
 31
0.0
  0
LINE
  5
5AD
330
6F
100
AcDbEntity
  8
ADD_LINE
  6
DOT
 62
     9
100
AcDbLine
 10
202.6763655641283
 20
84.27877532056015
 30
0.0
 11
202.6763655641283
 21
75.49588791222369
 31
0.0
  0
LINE
  5
5AE
330
6F
100
AcDbEntity
  8
ADD_LINE
  6
DOT
 62
     9
100
AcDbLine
 10
206.8733956237248
 20
80.0
 30
0.0
 11
197.8813918485233
 21
80.0
 31
0.0
  0
LINE
  5
5AF
330
6F
100
AcDbEntity
  8
ADD_LINE
  6
DOT
 62
     9
100
AcDbLine
 10
183.5763655641282
 20
84.27877532056015
 30
0.0
 11
183.5763655641282
 21
75.49588791222369
 31
0.0
  0
LINE
  5
5B0
330
6F
100
AcDbEntity
  8
ADD_LINE
  6
DOT
 62
     9
100
AcDbLine
 10
187.7733956237248
 20
80.0
 30
0.0
 11
178.7813918485232
 21
80.0
 31
0.0
  0
LINE
  5
5B1
330
6F
100
AcDbEntity
  8
ADD_LINE
  6
DOT
 62
     9
100
AcDbLine
 10
164.4763655641282
 20
84.27877532056015
 30
0.0
 11
164.4763655641282
 21
75.49588791222369
 31
0.0
  0
LINE
  5
5B2
330
6F
100
AcDbEntity
  8
ADD_LINE
  6
DOT
 62
     9
100
AcDbLine
 10
168.6733956237249
 20
80.0
 30
0.0
 11
159.6813918485232
 21
80.0
 31
0.0
  0
LINE
  5
5B3
330
6F
100
AcDbEntity
  8
ADD_LINE
  6
DOT
 62
     9
100
AcDbLine
 10
145.3763655641282
 20
84.27877532056015
 30
0.0
 11
145.3763655641282
 21
75.49588791222369
 31
0.0
  0
LINE
  5
5B4
330
6F
100
AcDbEntity
  8
ADD_LINE
  6
DOT
 62
     9
100
AcDbLine
 10
149.5733956237249
 20
80.0
 30
0.0
 11
140.5813918485232
 21
80.0
 31
0.0
  0
LINE
  5
5B5
330
6F
100
AcDbEntity
  8
ADD_LINE
  6
DOT
 62
     9
100
AcDbLine
 10
126.2763655641283
 20
84.27877532056015
 30
0.0
 11
126.2763655641283
 21
75.49588791222369
 31
0.0
  0
LINE
  5
5B6
330
6F
100
AcDbEntity
  8
ADD_LINE
  6
DOT
 62
     9
100
AcDbLine
 10
130.4733956237249
 20
80.0
 30
0.0
 11
121.4813918485232
 21
80.0
 31
0.0
  0
LINE
  5
5B7
330
6F
100
AcDbEntity
  8
ADD_LINE
  6
DOT
 62
     9
100
AcDbLine
 10
107.1763655641283
 20
84.27877532056015
 30
0.0
 11
107.1763655641283
 21
75.49588791222369
 31
0.0
  0
LINE
  5
5B8
330
6F
100
AcDbEntity
  8
ADD_LINE
  6
DOT
 62
     9
100
AcDbLine
 10
111.3733956237249
 20
80.0
 30
0.0
 11
102.3813918485233
 21
80.0
 31
0.0
  0
LINE
  5
5B9
330
6F
100
AcDbEntity
  8
ADD_LINE
  6
DOT
 62
     9
100
AcDbLine
 10
88.0763655641283
 20
84.27877532056015
 30
0.0
 11
88.0763655641283
 21
75.49588791222369
 31
0.0
  0
LINE
  5
5BA
330
6F
100
AcDbEntity
  8
ADD_LINE
  6
DOT
 62
     9
100
AcDbLine
 10
92.27339562372492
 20
80.0
 30
0.0
 11
83.28139184852327
 21
80.0
 31
0.0
  0
LINE
  5
5BB
330
6F
100
AcDbEntity
  8
ADD_LINE
  6
DOT
 62
     9
100
AcDbLine
 10
68.97636556412829
 20
84.27877532056015
 30
0.0
 11
68.97636556412829
 21
75.49588791222369
 31
0.0
  0
LINE
  5
5BC
330
6F
100
AcDbEntity
  8
ADD_LINE
  6
DOT
 62
     9
100
AcDbLine
 10
73.17339562372494
 20
80.0
 30
0.0
 11
64.18139184852328
 21
80.0
 31
0.0
  0
LINE
  5
5BD
330
6F
100
AcDbEntity
  8
ADD_LINE
  6
DOT
 62
     9
100
AcDbLine
 10
49.87636556412828
 20
84.27877532056015
 30
0.0
 11
49.87636556412828
 21
75.49588791222369
 31
0.0
  0
LINE
  5
5BE
330
6F
100
AcDbEntity
  8
ADD_LINE
  6
DOT
 62
     9
100
AcDbLine
 10
54.07339562372492
 20
80.0
 30
0.0
 11
45.08139184852328
 21
80.0
 31
0.0
  0
LINE
  5
5BF
330
6F
100
AcDbEntity
  8
ADD_LINE
  6
DOT
 62
     9
100
AcDbLine
 10
30.7763655641283
 20
84.27877532056015
 30
0.0
 11
30.7763655641283
 21
75.49588791222369
 31
0.0
  0
LINE
  5
5C0
330
6F
100
AcDbEntity
  8
ADD_LINE
  6
DOT
 62
     9
100
AcDbLine
 10
34.97339562372494
 20
80.0
 30
0.0
 11
25.98139184852329
 21
80.0
 31
0.0
  0
LINE
  5
5C1
330
6F
100
AcDbEntity
  8
ADD_LINE
  6
DOT
 62
     9
100
AcDbLine
 10
212.2263655641281
 20
84.27877532056015
 30
0.0
 11
212.2263655641281
 21
75.49588791222369
 31
0.0
  0
LINE
  5
5C2
330
6F
100
AcDbEntity
  8
ADD_LINE
  6
DOT
 62
     9
100
AcDbLine
 10
216.4233956237249
 20
80.0
 30
0.0
 11
207.4313918485232
 21
80.0
 31
0.0
  0
LINE
  5
5C3
330
6F
100
AcDbEntity
  8
ADD_LINE
  6
DOT
 62
     9
100
AcDbLine
 10
78.52636556412824
 20
84.27877532056015
 30
0.0
 11
78.52636556412824
 21
75.49588791222369
 31
0.0
  0
LINE
  5
5C4
330
6F
100
AcDbEntity
  8
ADD_LINE
  6
DOT
 62
     9
100
AcDbLine
 10
82.72339562372486
 20
80.0
 30
0.0
 11
73.73139184852323
 21
80.0
 31
0.0
  0
TEXT
  5
5C5
330
6F
100
AcDbEntity
  8
_2-E_文字
 62
     3
100
AcDbText
 10
29.68392661023125
 20
78.5325610461029
 30
0.0
 40
3.0
  1
1
 41
0.8333333333333332
100
AcDbText
  0
TEXT
  5
5C6
330
6F
100
AcDbEntity
  8
_2-E_文字
 62
     3
100
AcDbText
 10
48.78392661023139
 20
78.5325610461029
 30
0.0
 40
3.0
  1
2
 41
0.8333333333333332
100
AcDbText
  0
TEXT
  5
5C7
330
6F
100
AcDbEntity
  8
_2-E_文字
 62
     3
100
AcDbText
 10
67.88392661023152
 20
78.5325610461029
 30
0.0
 40
3.0
  1
3
 41
0.8333333333333332
100
AcDbText
  0
TEXT
  5
5C8
330
6F
100
AcDbEntity
  8
_2-E_文字
 62
     3
100
AcDbText
 10
77.28392661023139
 20
78.53256105064843
 30
0.0
 40
3.0
  1
3'
 41
0.8333333333333332
100
AcDbText
  0
TEXT
  5
5C9
330
6F
100
AcDbEntity
  8
_2-E_文字
 62
     3
100
AcDbText
 10
86.98392661023165
 20
78.5325610461029
 30
0.0
 40
3.0
  1
4
 41
0.8333333333333332
100
AcDbText
  0
TEXT
  5
5CA
330
6F
100
AcDbEntity
  8
_2-E_文字
 62
     3
100
AcDbText
 10
106.0839266102318
 20
78.5325610461029
 30
0.0
 40
3.0
  1
5
 41
0.8333333333333332
100
AcDbText
  0
TEXT
  5
5CB
330
6F
100
AcDbEntity
  8
_2-E_文字
 62
     3
100
AcDbText
 10
125.1839266102319
 20
78.5325610461029
 30
0.0
 40
3.0
  1
6
 41
0.8333333333333332
100
AcDbText
  0
TEXT
  5
5CC
330
6F
100
AcDbEntity
  8
_2-E_文字
 62
     3
100
AcDbText
 10
144.2839266102321
 20
78.5325610461029
 30
0.0
 40
3.0
  1
7
 41
0.8333333333333332
100
AcDbText
  0
TEXT
  5
5CD
330
6F
100
AcDbEntity
  8
_2-E_文字
 62
     3
100
AcDbText
 10
163.3839266102321
 20
78.5325610461029
 30
0.0
 40
3.0
  1
8
 41
0.8333333333333332
100
AcDbText
  0
TEXT
  5
5CE
330
6F
100
AcDbEntity
  8
_2-E_文字
 62
     3
100
AcDbText
 10
182.4839266102324
 20
78.5325610461029
 30
0.0
 40
3.0
  1
9
 41
0.8333333333333332
100
AcDbText
  0
TEXT
  5
5CF
330
6F
100
AcDbEntity
  8
_2-E_文字
 62
     3
100
AcDbText
 10
201.4339266102324
 20
78.5325610461029
 30
0.0
 40
3.0
  1
10
 41
0.8333333333333332
100
AcDbText
  0
TEXT
  5
5D0
330
6F
100
AcDbEntity
  8
_2-E_文字
 62
     3
100
AcDbText
 10
210.8339266102321
 20
78.53256105519398
 30
0.0
 40
3.0
  1
10'
 41
0.8333333333333332
100
AcDbText
  0
TEXT
  5
5D1
330
6F
100
AcDbEntity
  8
_2-E_文字
 62
     3
100
AcDbText
 10
220.5339266102325
 20
78.5325610461029
 30
0.0
 40
3.0
  1
11
 41
0.8333333333333332
100
AcDbText
  0
TEXT
  5
5D2
330
6F
100
AcDbEntity
  8
_2-E_文字
 62
     3
100
AcDbText
 10
239.6339266102327
 20
78.5325610461029
 30
0.0
 40
3.0
  1
12
 41
0.8333333333333332
100
AcDbText
  0
TEXT
  5
5D3
330
6F
100
AcDbEntity
  8
_2-E_文字
 62
     3
100
AcDbText
 10
258.7339266102328
 20
78.5325610461029
 30
0.0
 40
3.0
  1
13
 41
0.8333333333333332
100
AcDbText
  0
CIRCLE
  5
5D4
330
6F
100
AcDbEntity
  8
_2-E_文字
  6
Continuous
 62
     4
100
AcDbCircle
 10
259.9763655641283
 20
80.0
 30
0.0
 40
3.0
  0
CIRCLE
  5
5D5
330
6F
100
AcDbEntity
  8
_2-E_文字
  6
Continuous
 62
     4
100
AcDbCircle
 10
240.8763655641283
 20
80.0
 30
0.0
 40
3.0
  0
CIRCLE
  5
5D6
330
6F
100
AcDbEntity
  8
_2-E_文字
  6
Continuous
 62
     4
100
AcDbCircle
 10
221.7763655641283
 20
80.0
 30
0.0
 40
3.0
  0
CIRCLE
  5
5D7
330
6F
100
AcDbEntity
  8
_2-E_文字
  6
Continuous
 62
     4
100
AcDbCircle
 10
202.6763655641283
 20
80.0
 30
0.0
 40
3.0
  0
CIRCLE
  5
5D8
330
6F
100
AcDbEntity
  8
_2-E_文字
  6
Continuous
 62
     4
100
AcDbCircle
 10
183.5763655641282
 20
80.0
 30
0.0
 40
3.0
  0
CIRCLE
  5
5D9
330
6F
100
AcDbEntity
  8
_2-E_文字
  6
Continuous
 62
     4
100
AcDbCircle
 10
164.4763655641282
 20
80.0
 30
0.0
 40
3.0
  0
CIRCLE
  5
5DA
330
6F
100
AcDbEntity
  8
_2-E_文字
  6
Continuous
 62
     4
100
AcDbCircle
 10
145.3763655641282
 20
80.0
 30
0.0
 40
3.0
  0
CIRCLE
  5
5DB
330
6F
100
AcDbEntity
  8
_2-E_文字
  6
Continuous
 62
     4
100
AcDbCircle
 10
126.2763655641283
 20
80.0
 30
0.0
 40
3.0
  0
CIRCLE
  5
5DC
330
6F
100
AcDbEntity
  8
_2-E_文字
  6
Continuous
 62
     4
100
AcDbCircle
 10
107.1763655641283
 20
80.0
 30
0.0
 40
3.0
  0
CIRCLE
  5
5DD
330
6F
100
AcDbEntity
  8
_2-E_文字
  6
Continuous
 62
     4
100
AcDbCircle
 10
88.0763655641283
 20
80.0
 30
0.0
 40
3.0
  0
CIRCLE
  5
5DE
330
6F
100
AcDbEntity
  8
_2-E_文字
  6
Continuous
 62
     4
100
AcDbCircle
 10
68.97636556412829
 20
80.0
 30
0.0
 40
3.0
  0
CIRCLE
  5
5DF
330
6F
100
AcDbEntity
  8
_2-E_文字
  6
Continuous
 62
     4
100
AcDbCircle
 10
49.87636556412828
 20
80.0
 30
0.0
 40
3.0
  0
CIRCLE
  5
5E0
330
6F
100
AcDbEntity
  8
_2-E_文字
  6
Continuous
 62
     4
100
AcDbCircle
 10
30.7763655641283
 20
80.0
 30
0.0
 40
3.0
  0
CIRCLE
  5
5E1
330
6F
100
AcDbEntity
  8
_2-E_文字
  6
Continuous
 62
     4
100
AcDbCircle
 10
212.2263655641281
 20
80.0
 30
0.0
 40
3.0
  0
CIRCLE
  5
5E2
330
6F
100
AcDbEntity
  8
_2-E_文字
  6
Continuous
 62
     4
100
AcDbCircle
 10
78.52636556412824
 20
80.0
 30
0.0
 40
3.0
  0
LINE
  5
5E3
330
6F
100
AcDbEntity
  8
ADD_LINE
  6
DOT
 62
     9
100
AcDbLine
 10
23.57636556412802
 20
119.4304830843073
 30
0.0
 11
268.929945941476
 21
119.4304830843073
 31
0.0
  0
INSERT
  5
5E4
330
6F
100
AcDbEntity
  8
_2-E_文字
100
AcDbBlockReference
  2
-001-２
 10
49.96019444665733
 20
114.7196787915133
 30
0.0
 41
2.0
 42
2.0
  0
INSERT
  5
5E5
330
6F
100
AcDbEntity
  8
_2-E_文字
100
AcDbBlockReference
  2
-012-4
 10
88.0485448147378
 20
114.5692843795455
 30
0.0
 41
2.0
 42
2.0
  0
INSERT
  5
5E6
330
6F
100
AcDbEntity
  8
_2-E_文字
100
AcDbBlockReference
  2
-002-5
 10
107.1485448147378
 20
114.5692843795455
 30
0.0
 41
2.0
 42
2.0
  0
INSERT
  5
5E7
330
6F
100
AcDbEntity
  8
_2-E_文字
100
AcDbBlockReference
  2
-003-6
 10
126.248544814738
 20
114.5692843795455
 30
0.0
 41
2.0
 42
2.0
  0
INSERT
  5
5E8
330
6F
100
AcDbEntity
  8
_2-E_文字
100
AcDbBlockReference
  2
-004-7
 10
145.0996799431966
 20
114.4697384309289
 30
0.0
 41
2.0
 42
2.0
  0
INSERT
  5
5E9
330
6F
100
AcDbEntity
  8
_2-E_文字
100
AcDbBlockReference
  2
-005-8
 10
164.4485448147383
 20
114.5692843795455
 30
0.0
 41
2.0
 42
2.0
  0
INSERT
  5
5EA
330
6F
100
AcDbEntity
  8
_2-E_文字
100
AcDbBlockReference
  2
-006-9
 10
183.5485448147384
 20
114.5692843795455
 30
0.0
 41
2.0
 42
2.0
  0
INSERT
  5
5EB
330
6F
100
AcDbEntity
  8
_2-E_文字
100
AcDbBlockReference
  2
-007-10
 10
202.7985448147386
 20
114.5692843795455
 30
0.0
 41
2.0
 42
2.0
  0
INSERT
  5
5EC
330
6F
100
AcDbEntity
  8
_2-E_文字
100
AcDbBlockReference
  2
-008-10_
 10
212.1994416618659
 20
115.2822820572965
 30
0.0
 41
2.0
 42
2.0
  0
INSERT
  5
5ED
330
6F
100
AcDbEntity
  8
_2-E_文字
100
AcDbBlockReference
  2
-009-11S
 10
221.7192556123725
 20
112.3477459951494
 30
0.0
 41
2.0
 42
2.0
  0
INSERT
  5
5EE
330
6F
100
AcDbEntity
  8
_2-E_文字
100
AcDbBlockReference
  2
-010-12
 10
240.7308040636892
 20
114.5888541462707
 30
0.0
 41
2.0
 42
2.0
  0
INSERT
  5
5EF
330
6F
100
AcDbEntity
  8
_2-E_文字
100
AcDbBlockReference
  2
-011-13
 10
259.9810527015254
 20
114.5285449792768
 30
0.0
 41
2.0
 42
2.0
  0
INSERT
  5
5F0
330
6F
100
AcDbEntity
  8
_2-E_文字
100
AcDbBlockReference
  2
-000-１
 10
-14.8652184247237
 20
265.263004229501
 30
0.0
 41
2.0
 42
2.0
  0
INSERT
  5
5F1
330
6F
100
AcDbEntity
  8
_2-E_文字
100
AcDbBlockReference
  2
-013-3
 10
68.94854481473766
 20
114.5692843704544
 30
0.0
 41
2.0
 42
2.0
  0
INSERT
  5
5F2
330
6F
100
AcDbEntity
  8
_2-E_文字
100
AcDbBlockReference
  2
-014-3_
 10
68.94854481473766
 20
114.5692843704544
 30
0.0
 41
2.0
 42
2.0
  0
ENDSEC
  0
SECTION
  2
OBJECTS
  0
DICTIONARY
  5
C
330
0
100
AcDbDictionary
281
     1
  3
ACAD_COLOR
350
62
  3
ACAD_DETAILVIEWSTYLE
350
69
  3
ACAD_GROUP
350
D
  3
ACAD_LAYOUT
350
61
  3
ACAD_MATERIAL
350
10
  3
ACAD_MLEADERSTYLE
350
65
  3
ACAD_MLINESTYLE
350
5E
  3
ACAD_PLOTSETTINGS
350
60
  3
ACAD_PLOTSTYLENAME
350
E
  3
ACAD_SCALELIST
350
42
  3
ACAD_SECTIONVIEWSTYLE
350
67
  3
ACAD_TABLESTYLE
350
63
  3
ACAD_VISUALSTYLE
350
29
  3
ACDB_RECOMPOSE_DATA
350
5FF
  3
AcDbVariableDictionary
350
5F3
  0
DICTIONARY
  5
62
102
{ACAD_REACTORS
330
C
102
}
330
C
100
AcDbDictionary
281
     1
  0
DICTIONARY
  5
69
102
{ACAD_REACTORS
330
C
102
}
330
C
100
AcDbDictionary
281
     1
  3
Imperial24
350
6A
  0
DICTIONARY
  5
D
102
{ACAD_REACTORS
330
C
102
}
330
C
100
AcDbDictionary
281
     1
  0
DICTIONARY
  5
61
102
{ACAD_REACTORS
330
C
102
}
330
C
100
AcDbDictionary
281
     1
  3
Layout1
350
6E
  3
Model
350
72
  0
DICTIONARY
  5
10
102
{ACAD_REACTORS
330
C
102
}
330
C
100
AcDbDictionary
281
     1
  3
ByBlock
350
19
  3
ByLayer
350
11
  3
Global
350
21
  0
DICTIONARY
  5
65
102
{ACAD_REACTORS
330
C
102
}
330
C
100
AcDbDictionary
281
     1
  3
Standard
350
66
  0
DICTIONARY
  5
5E
102
{ACAD_REACTORS
330
C
102
}
330
C
100
AcDbDictionary
281
     1
  3
Standard
350
5F
  0
DICTIONARY
  5
60
102
{ACAD_REACTORS
330
C
102
}
330
C
100
AcDbDictionary
281
     1
  0
ACDBDICTIONARYWDFLT
  5
E
102
{ACAD_REACTORS
330
C
102
}
330
C
100
AcDbDictionary
281
     1
  3
Normal
350
F
100
AcDbDictionaryWithDefault
340
F
  0
DICTIONARY
  5
42
102
{ACAD_REACTORS
330
C
102
}
330
C
100
AcDbDictionary
281
     1
  3
A0
350
43
  3
A1
350
44
  3
A2
350
45
  3
A3
350
46
  3
A4
350
47
  3
A5
350
48
  3
A6
350
49
  3
A7
350
4A
  3
A8
350
4B
  3
A9
350
4C
  3
B0
350
4D
  3
B1
350
4E
  3
B2
350
4F
  3
B3
350
50
  3
B4
350
51
  3
B5
350
52
  3
B6
350
53
  0
DICTIONARY
  5
67
102
{ACAD_REACTORS
330
C
102
}
330
C
100
AcDbDictionary
281
     1
  3
Imperial24
350
68
  0
DICTIONARY
  5
63
102
{ACAD_REACTORS
330
C
102
}
330
C
100
AcDbDictionary
281
     1
  3
Standard
350
64
  0
DICTIONARY
  5
29
102
{ACAD_REACTORS
330
C
102
}
330
C
100
AcDbDictionary
281
     1
  3
2dWireframe
350
2F
  3
Basic
350
2E
  3
Brighten
350
35
  3
ColorChange
350
39
  3
Conceptual
350
32
  3
Dim
350
34
  3
EdgeColorOff
350
41
  3
Facepattern
350
38
  3
Flat
350
2A
  3
FlatWithEdges
350
2B
  3
Gouraud
350
2C
  3
GouraudWithEdges
350
2D
  3
Hidden
350
31
  3
JitterOff
350
3F
  3
Linepattern
350
37
  3
OverhangOff
350
40
  3
Realistic
350
33
  3
Shaded
350
3E
  3
Shaded with edges
350
3D
  3
Shades of Gray
350
3A
  3
Sketchy
350
3B
  3
Thicken
350
36
  3
Wireframe
350
30
  3
X-Ray
350
3C
  0
XRECORD
  5
5FF
102
{ACAD_REACTORS
330
C
102
}
330
C
100
AcDbXrecord
280
     1
 90
        1
330
64
  0
DICTIONARY
  5
5F3
102
{ACAD_REACTORS
330
C
102
}
330
C
100
AcDbDictionary
281
     1
  3
CANNOSCALE
350
5F9
  3
CMLEADERSTYLE
350
5F5
  3
CTABLESTYLE
350
5F4
  3
CVIEWDETAILSTYLE
350
5F6
  3
CVIEWSECTIONSTYLE
350
5F7
  3
LAYEREVAL
350
5FB
  3
LAYERNOTIFY
350
5FC
  3
LIGHTINGUNITS
350
5FA
  3
MSLTSCALE
350
5F8
  0
ACDBDETAILVIEWSTYLE
  5
6A
102
{ACAD_REACTORS
330
69
102
}
330
69
100
AcDbModelDocViewStyle
 70
     0
  3
Imperial24
290
     0
300
Imperial24
 90
        0
100
AcDbDetailViewStyle
 70
     0
 71
     0
 90
        3
 71
     1
340
55
 62
   256
 40
0.24
340
0
 62
   256
 40
0.24
300

 40
0.36
280
     3
 71
     2
340
5C
 90
       25
 62
   256
 71
     3
340
55
 62
   256
 40
0.24
 90
        1
 40
0.75
 90
        1
300
%<\AcVar ViewType \f "%tc1">% %<\AcVar ViewDetailId>%\PSCALE %<\AcVar ViewScale \f "%sn">%
 71
     4
340
5C
 90
       25
 62
   256
340
5C
 90
       25
 62
   256
280
     0
  0
LAYOUT
  5
6E
102
{ACAD_REACTORS
330
61
102
}
330
61
100
AcDbPlotSettings
  1

  2

  4

  6

 40
0.0
 41
0.0
 42
0.0
 43
0.0
 44
0.0
 45
0.0
 46
0.0
 47
0.0
 48
0.0
 49
0.0
140
0.0
141
0.0
142
1.0
143
1.0
 70
   688
 72
     0
 73
     0
 74
     5
  7

 75
    16
147
1.0
 76
     0
 77
     2
 78
   300
148
0.0
149
0.0
100
AcDbLayout
  1
Layout1
 70
     1
 71
     1
 10
0.0
 20
0.0
 11
12.0
 21
9.0
 12
0.0
 22
0.0
 32
0.0
 14
0.0
 24
0.0
 34
0.0
 15
0.0
 25
0.0
 35
0.0
146
0.0
 13
0.0
 23
0.0
 33
0.0
 16
1.0
 26
0.0
 36
0.0
 17
0.0
 27
1.0
 37
0.0
 76
     0
330
6B
  0
LAYOUT
  5
72
102
{ACAD_REACTORS
330
61
102
}
330
61
100
AcDbPlotSettings
  1

  2

  4

  6

 40
0.0
 41
0.0
 42
0.0
 43
0.0
 44
0.0
 45
0.0
 46
0.0
 47
0.0
 48
0.0
 49
0.0
140
0.0
141
0.0
142
1.0
143
1.0
 70
  1712
 72
     0
 73
     0
 74
     0
  7

 75
     0
147
1.0
 76
     0
 77
     2
 78
   300
148
0.0
149
0.0
100
AcDbLayout
  1
Model
 70
     1
 71
     0
 10
0.0
 20
0.0
 11
12.0
 21
9.0
 12
0.0
 22
0.0
 32
0.0
 14
0.0
 24
0.0
 34
0.0
 15
0.0
 25
0.0
 35
0.0
146
0.0
 13
0.0
 23
0.0
 33
0.0
 16
1.0
 26
0.0
 36
0.0
 17
0.0
 27
1.0
 37
0.0
 76
     0
330
6F
  0
MATERIAL
  5
19
102
{ACAD_XDICTIONARY
360
1A
102
}
102
{ACAD_REACTORS
330
10
102
}
330
10
100
AcDbMaterial
  1
ByBlock
 72
     0
 43
0.0208333333333333
 43
0.0
 43
0.0
 43
0.0
 43
0.0
 43
0.0208333333333333
 43
0.0
 43
0.0
 43
0.0
 43
0.0
 43
1.0
 43
0.0
 43
0.0
 43
0.0
 43
0.0
 43
1.0
 77
     0
 47
0.0208333333333333
 47
0.0
 47
0.0
 47
0.0
 47
0.0
 47
0.0208333333333333
 47
0.0
 47
0.0
 47
0.0
 47
0.0
 47
1.0
 47
0.0
 47
0.0
 47
0.0
 47
0.0
 47
1.0
171
     0
 49
0.0208333333333333
 49
0.0
 49
0.0
 49
0.0
 49
0.0
 49
0.0208333333333333
 49
0.0
 49
0.0
 49
0.0
 49
0.0
 49
1.0
 49
0.0
 49
0.0
 49
0.0
 49
0.0
 49
1.0
175
     0
142
0.0208333333333333
142
0.0
142
0.0
142
0.0
142
0.0
142
0.0208333333333333
142
0.0
142
0.0
142
0.0
142
0.0
142
1.0
142
0.0
142
0.0
142
0.0
142
0.0
142
1.0
179
     0
144
0.0208333333333333
144
0.0
144
0.0
144
0.0
144
0.0
144
0.0208333333333333
144
0.0
144
0.0
144
0.0
144
0.0
144
1.0
144
0.0
144
0.0
144
0.0
144
0.0
144
1.0
147
0.0208333333333333
147
0.0
147
0.0
147
0.0
147
0.0
147
0.0208333333333333
147
0.0
147
0.0
147
0.0
147
0.0
147
1.0
147
0.0
147
0.0
147
0.0
147
0.0
147
1.0
  0
MATERIAL
  5
11
102
{ACAD_XDICTIONARY
360
12
102
}
102
{ACAD_REACTORS
330
10
102
}
330
10
100
AcDbMaterial
  1
ByLayer
 72
     0
 43
0.0208333333333333
 43
0.0
 43
0.0
 43
0.0
 43
0.0
 43
0.0208333333333333
 43
0.0
 43
0.0
 43
0.0
 43
0.0
 43
1.0
 43
0.0
 43
0.0
 43
0.0
 43
0.0
 43
1.0
 77
     0
 47
0.0208333333333333
 47
0.0
 47
0.0
 47
0.0
 47
0.0
 47
0.0208333333333333
 47
0.0
 47
0.0
 47
0.0
 47
0.0
 47
1.0
 47
0.0
 47
0.0
 47
0.0
 47
0.0
 47
1.0
171
     0
 49
0.0208333333333333
 49
0.0
 49
0.0
 49
0.0
 49
0.0
 49
0.0208333333333333
 49
0.0
 49
0.0
 49
0.0
 49
0.0
 49
1.0
 49
0.0
 49
0.0
 49
0.0
 49
0.0
 49
1.0
175
     0
142
0.0208333333333333
142
0.0
142
0.0
142
0.0
142
0.0
142
0.0208333333333333
142
0.0
142
0.0
142
0.0
142
0.0
142
1.0
142
0.0
142
0.0
142
0.0
142
0.0
142
1.0
179
     0
144
0.0208333333333333
144
0.0
144
0.0
144
0.0
144
0.0
144
0.0208333333333333
144
0.0
144
0.0
144
0.0
144
0.0
144
1.0
144
0.0
144
0.0
144
0.0
144
0.0
144
1.0
147
0.0208333333333333
147
0.0
147
0.0
147
0.0
147
0.0
147
0.0208333333333333
147
0.0
147
0.0
147
0.0
147
0.0
147
1.0
147
0.0
147
0.0
147
0.0
147
0.0
147
1.0
  0
MATERIAL
  5
21
102
{ACAD_XDICTIONARY
360
22
102
}
102
{ACAD_REACTORS
330
10
102
}
330
10
100
AcDbMaterial
  1
Global
 72
     0
 43
0.0208333333333333
 43
0.0
 43
0.0
 43
0.0
 43
0.0
 43
0.0208333333333333
 43
0.0
 43
0.0
 43
0.0
 43
0.0
 43
1.0
 43
0.0
 43
0.0
 43
0.0
 43
0.0
 43
1.0
 77
     0
 47
0.0208333333333333
 47
0.0
 47
0.0
 47
0.0
 47
0.0
 47
0.0208333333333333
 47
0.0
 47
0.0
 47
0.0
 47
0.0
 47
1.0
 47
0.0
 47
0.0
 47
0.0
 47
0.0
 47
1.0
171
     0
 49
0.0208333333333333
 49
0.0
 49
0.0
 49
0.0
 49
0.0
 49
0.0208333333333333
 49
0.0
 49
0.0
 49
0.0
 49
0.0
 49
1.0
 49
0.0
 49
0.0
 49
0.0
 49
0.0
 49
1.0
175
     0
142
0.0208333333333333
142
0.0
142
0.0
142
0.0
142
0.0
142
0.0208333333333333
142
0.0
142
0.0
142
0.0
142
0.0
142
1.0
142
0.0
142
0.0
142
0.0
142
0.0
142
1.0
179
     0
144
0.0208333333333333
144
0.0
144
0.0
144
0.0
144
0.0
144
0.0208333333333333
144
0.0
144
0.0
144
0.0
144
0.0
144
1.0
144
0.0
144
0.0
144
0.0
144
0.0
144
1.0
147
0.0208333333333333
147
0.0
147
0.0
147
0.0
147
0.0
147
0.0208333333333333
147
0.0
147
0.0
147
0.0
147
0.0
147
1.0
147
0.0
147
0.0
147
0.0
147
0.0
147
1.0
  0
MLEADERSTYLE
  5
66
102
{ACAD_REACTORS
330
65
102
}
330
65
100
AcDbMLeaderStyle
179
     2
170
     2
171
     1
172
     0
 90
        2
 40
0.0
 41
0.0
173
     1
 91
-1056964608
340
5A
 92
       -2
290
     1
 42
0.09
291
     1
 43
0.36
  3
Standard
 44
0.18
300

342
55
174
     1
178
     6
175
     1
176
     0
 93
-1056964608
 45
0.18
292
     0
297
     0
 46
0.18
 94
-1056964608
 47
1.0
 49
1.0
140
1.0
293
     1
141
0.0
294
     1
177
     0
142
1.0
295
     0
296
     0
143
0.125
271
     0
272
     9
273
     9
298
     0
  0
MLINESTYLE
  5
5F
102
{ACAD_REACTORS
330
5E
102
}
330
5E
100
AcDbMlineStyle
  2
STANDARD
 70
     0
  3

 62
   256
 51
90.0
 52
90.0
 71
     2
 49
0.5
 62
   256
  6
BYLAYER
 49
-0.5
 62
   256
  6
BYLAYER
  0
ACDBPLACEHOLDER
  5
F
102
{ACAD_REACTORS
330
E
102
}
330
E
  0
SCALE
  5
43
102
{ACAD_REACTORS
330
42
102
}
330
42
100
AcDbScale
 70
     0
300
1:1
140
1.0
141
1.0
290
     1
  0
SCALE
  5
44
102
{ACAD_REACTORS
330
42
102
}
330
42
100
AcDbScale
 70
     0
300
1/128" = 1'-0"
140
0.0078125
141
12.0
290
     0
  0
SCALE
  5
45
102
{ACAD_REACTORS
330
42
102
}
330
42
100
AcDbScale
 70
     0
300
1/64" = 1'-0"
140
0.015625
141
12.0
290
     0
  0
SCALE
  5
46
102
{ACAD_REACTORS
330
42
102
}
330
42
100
AcDbScale
 70
     0
300
1/32" = 1'-0"
140
0.03125
141
12.0
290
     0
  0
SCALE
  5
47
102
{ACAD_REACTORS
330
42
102
}
330
42
100
AcDbScale
 70
     0
300
1/16" = 1'-0"
140
0.0625
141
12.0
290
     0
  0
SCALE
  5
48
102
{ACAD_REACTORS
330
42
102
}
330
42
100
AcDbScale
 70
     0
300
3/32" = 1'-0"
140
0.09375
141
12.0
290
     0
  0
SCALE
  5
49
102
{ACAD_REACTORS
330
42
102
}
330
42
100
AcDbScale
 70
     0
300
1/8" = 1'-0"
140
0.125
141
12.0
290
     0
  0
SCALE
  5
4A
102
{ACAD_REACTORS
330
42
102
}
330
42
100
AcDbScale
 70
     0
300
3/16" = 1'-0"
140
0.1875
141
12.0
290
     0
  0
SCALE
  5
4B
102
{ACAD_REACTORS
330
42
102
}
330
42
100
AcDbScale
 70
     0
300
1/4" = 1'-0"
140
0.25
141
12.0
290
     0
  0
SCALE
  5
4C
102
{ACAD_REACTORS
330
42
102
}
330
42
100
AcDbScale
 70
     0
300
3/8" = 1'-0"
140
0.375
141
12.0
290
     0
  0
SCALE
  5
4D
102
{ACAD_REACTORS
330
42
102
}
330
42
100
AcDbScale
 70
     0
300
1/2" = 1'-0"
140
0.5
141
12.0
290
     0
  0
SCALE
  5
4E
102
{ACAD_REACTORS
330
42
102
}
330
42
100
AcDbScale
 70
     0
300
3/4" = 1'-0"
140
0.75
141
12.0
290
     0
  0
SCALE
  5
4F
102
{ACAD_REACTORS
330
42
102
}
330
42
100
AcDbScale
 70
     0
300
1" = 1'-0"
140
1.0
141
12.0
290
     0
  0
SCALE
  5
50
102
{ACAD_REACTORS
330
42
102
}
330
42
100
AcDbScale
 70
     0
300
1-1/2" = 1'-0"
140
1.5
141
12.0
290
     0
  0
SCALE
  5
51
102
{ACAD_REACTORS
330
42
102
}
330
42
100
AcDbScale
 70
     0
300
3" = 1'-0"
140
3.0
141
12.0
290
     0
  0
SCALE
  5
52
102
{ACAD_REACTORS
330
42
102
}
330
42
100
AcDbScale
 70
     0
300
6" = 1'-0"
140
6.0
141
12.0
290
     0
  0
SCALE
  5
53
102
{ACAD_REACTORS
330
42
102
}
330
42
100
AcDbScale
 70
     0
300
1'-0" = 1'-0"
140
12.0
141
12.0
290
     0
  0
ACDBSECTIONVIEWSTYLE
  5
68
102
{ACAD_REACTORS
330
67
102
}
330
67
100
AcDbModelDocViewStyle
 70
     0
  3
Imperial24
290
     0
300
Imperial24
 90
        0
100
AcDbSectionViewStyle
 70
     0
 71
     0
 90
       78
 71
     1
340
55
 62
   256
 40
0.24
340
0
340
0
 62
   256
 40
0.24
300
I, O, Q, S, X, Z
 40
0.48
 90
        3
 40
0.18
 90
        1
 71
     2
340
5C
 90
       25
 62
   256
340
5C
 90
       50
 62
   256
 40
0.24
 40
0.0
 40
0.24
 71
     3
340
55
 62
   256
 40
0.24
 90
        1
 40
0.75
 90
        1
300
%<\AcVar ViewType \f "%tc1">% %<\AcVar ViewSectionStartId>%-%<\AcVar ViewSectionEndId>%\PSCALE %<\AcVar ViewScale \f "%sn">%
 71
     4
 62
   256
 62
   257
300
ANSI31
 40
1.0
 90
        0
290
     0
290
     0
 90
        6
 40
0.0
 40
1.570796326794896
 40
0.2617993877991494
 40
1.308996938995747
 40
-0.2617993877991494
 40
1.832595714594046
  0
TABLESTYLE
  5
64
102
{ACAD_XDICTIONARY
360
5FD
102
}
102
{ACAD_REACTORS
330
63
102
}
330
63
100
AcDbTableStyle
280
     0
  3
Standard
 70
     0
 71
     0
 40
0.06
 41
0.06
280
     0
281
     0
  7
STANDARD
140
0.18
170
     2
 62
     0
 63
     7
283
     0
 90
      512
 91
        0
  1

274
    -2
284
     1
 64
     0
275
    -2
285
     1
 65
     0
276
    -2
286
     1
 66
     0
277
    -2
287
     1
 67
     0
278
    -2
288
     1
 68
     0
279
    -2
289
     1
 69
     0
  7
STANDARD
140
0.25
170
     5
 62
     0
 63
     7
283
     0
 90
      512
 91
        0
  1

274
    -2
284
     1
 64
     0
275
    -2
285
     1
 65
     0
276
    -2
286
     1
 66
     0
277
    -2
287
     1
 67
     0
278
    -2
288
     1
 68
     0
279
    -2
289
     1
 69
     0
  7
STANDARD
140
0.18
170
     5
 62
     0
 63
     7
283
     0
 90
      512
 91
        0
  1

274
    -2
284
     1
 64
     0
275
    -2
285
     1
 65
     0
276
    -2
286
     1
 66
     0
277
    -2
287
     1
 67
     0
278
    -2
288
     1
 68
     0
279
    -2
289
     1
 69
     0
  0
VISUALSTYLE
  5
2F
102
{ACAD_REACTORS
330
29
102
}
330
29
100
AcDbVisualStyle
  2
2dWireframe
 70
     4
177
     3
291
     0
 70
    58
 90
        0
176
     1
 90
        2
176
     1
 90
        0
176
     1
 90
        0
176
     1
 40
0.6
176
     1
 40
30.0
176
     1
 62
     7
420
 16777215
176
     1
 90
        1
176
     1
 90
        4
176
     1
 62
     7
176
     1
 62
   257
176
     1
 90
        1
176
     1
 90
        1
176
     1
 40
1.0
176
     1
 90
        0
176
     1
 62
   257
176
     1
 40
1.0
176
     1
 90
        1
176
     1
 90
        6
176
     1
 90
        2
176
     1
 62
     7
176
     1
 90
        5
176
     1
 90
        0
176
     1
 90
        0
176
     1
290
     0
176
     1
 90
        1
176
     1
 40
0.0
176
     1
 90
        0
176
     1
290
     1
176
     1
290
     1
176
     1
290
     0
176
     1
290
     0
176
     1
290
     0
176
     1
290
     0
176
     1
290
     0
176
     1
290
     0
176
     1
290
     0
176
     1
 90
       50
176
     1
 40
0.0
176
     1
 40
1.0
176
     1
 90
        0
176
     1
 62
    18
420
        0
176
     1
 90
       50
176
     1
 90
        3
176
     1
 62
     5
420
      255
176
     1
290
     0
176
     1
 90
       50
176
     1
 90
       50
176
     1
 90
       50
176
     1
290
     0
176
     1
 90
       50
176
     1
 62
   256
176
     0
 40
1.0
176
     0
 90
        2
176
     1
  1
strokes_ogs.tif
176
     1
290
     0
176
     1
 40
1.0
176
     1
 40
1.0
176
     1
  0
VISUALSTYLE
  5
2E
102
{ACAD_REACTORS
330
29
102
}
330
29
100
AcDbVisualStyle
  2
Basic
 70
     7
177
     3
291
     1
 70
    58
 90
        1
176
     1
 90
        0
176
     1
 90
        1
176
     1
 90
        0
176
     1
 40
0.6
176
     1
 40
30.0
176
     1
 62
     7
420
 16777215
176
     1
 90
        0
176
     1
 90
        4
176
     1
 62
     7
176
     1
 62
   257
176
     1
 90
        1
176
     1
 90
        1
176
     1
 40
1.0
176
     1
 90
        8
176
     1
 62
     7
176
     1
 40
1.0
176
     1
 90
        1
176
     1
 90
        6
176
     1
 90
        2
176
     1
 62
     7
176
     1
 90
        5
176
     1
 90
        0
176
     1
 90
        0
176
     1
290
     0
176
     1
 90
        1
176
     1
 40
0.0
176
     1
 90
        0
176
     1
290
     0
176
     1
290
     1
176
     1
290
     1
176
     1
290
     0
176
     1
290
     0
176
     1
290
     0
176
     1
290
     0
176
     1
290
     0
176
     1
290
     0
176
     1
 90
       50
176
     1
 40
0.0
176
     1
 40
1.0
176
     1
 90
        0
176
     1
 62
    18
420
        0
176
     1
 90
       50
176
     1
 90
        3
176
     1
 62
     5
420
      255
176
     1
290
     0
176
     1
 90
       50
176
     1
 90
       50
176
     1
 90
       50
176
     1
290
     0
176
     1
 90
       50
176
     1
 62
   256
176
     0
 40
1.0
176
     0
 90
        2
176
     1
  1
strokes_ogs.tif
176
     1
290
     0
176
     1
 40
1.0
176
     1
 40
1.0
176
     1
  0
VISUALSTYLE
  5
35
102
{ACAD_REACTORS
330
29
102
}
330
29
100
AcDbVisualStyle
  2
Brighten
 70
    12
177
     3
291
     1
 70
    58
 90
        2
176
     1
 90
        2
176
     1
 90
        0
176
     1
 90
        0
176
     1
 40
0.6
176
     1
 40
30.0
176
     1
 62
     7
420
 16777215
176
     1
 90
        1
176
     1
 90
        4
176
     1
 62
     7
176
     1
 62
   257
176
     1
 90
        1
176
     1
 90
        1
176
     1
 40
1.0
176
     1
 90
        8
176
     1
 62
     7
176
     1
 40
1.0
176
     1
 90
        1
176
     1
 90
        6
176
     1
 90
        2
176
     1
 62
     7
176
     1
 90
        5
176
     1
 90
        0
176
     1
 90
        0
176
     1
290
     0
176
     1
 90
        1
176
     1
 40
50.0
176
     1
 90
        0
176
     1
290
     0
176
     1
290
     1
176
     1
290
     1
176
     1
290
     0
176
     1
290
     0
176
     1
290
     0
176
     1
290
     0
176
     1
290
     0
176
     1
290
     0
176
     1
 90
       50
176
     1
 40
0.0
176
     1
 40
1.0
176
     1
 90
        0
176
     1
 62
    18
420
        0
176
     1
 90
       50
176
     1
 90
        3
176
     1
 62
     5
420
      255
176
     1
290
     0
176
     1
 90
       50
176
     1
 90
       50
176
     1
 90
       50
176
     1
290
     0
176
     1
 90
       50
176
     1
 62
   256
176
     0
 40
1.0
176
     0
 90
        2
176
     1
  1
strokes_ogs.tif
176
     1
290
     0
176
     1
 40
1.0
176
     1
 40
1.0
176
     1
  0
VISUALSTYLE
  5
39
102
{ACAD_REACTORS
330
29
102
}
330
29
100
AcDbVisualStyle
  2
ColorChange
 70
    16
177
     3
291
     1
 70
    58
 90
        2
176
     1
 90
        2
176
     1
 90
        3
176
     1
 90
        0
176
     1
 40
0.6
176
     1
 40
30.0
176
     1
 62
     8
420
  8421504
176
     1
 90
        1
176
     1
 90
        4
176
     1
 62
     7
176
     1
 62
   257
176
     1
 90
        1
176
     1
 90
        1
176
     1
 40
1.0
176
     1
 90
        8
176
     1
 62
     8
420
  8421504
176
     1
 40
1.0
176
     1
 90
        1
176
     1
 90
        6
176
     1
 90
        2
176
     1
 62
     7
176
     1
 90
        5
176
     1
 90
        0
176
     1
 90
        0
176
     1
290
     0
176
     1
 90
        1
176
     1
 40
0.0
176
     1
 90
        0
176
     1
290
     0
176
     1
290
     1
176
     1
290
     1
176
     1
290
     0
176
     1
290
     0
176
     1
290
     0
176
     1
290
     0
176
     1
290
     0
176
     1
290
     0
176
     1
 90
       50
176
     1
 40
0.0
176
     1
 40
1.0
176
     1
 90
        0
176
     1
 62
    18
420
        0
176
     1
 90
       50
176
     1
 90
        3
176
     1
 62
     5
420
      255
176
     1
290
     0
176
     1
 90
       50
176
     1
 90
       50
176
     1
 90
       50
176
     1
290
     0
176
     1
 90
       50
176
     1
 62
   256
176
     0
 40
1.0
176
     0
 90
        2
176
     1
  1
strokes_ogs.tif
176
     1
290
     0
176
     1
 40
1.0
176
     1
 40
1.0
176
     1
  0
VISUALSTYLE
  5
32
102
{ACAD_REACTORS
330
29
102
}
330
29
100
AcDbVisualStyle
  2
Conceptual
 70
     9
177
     3
291
     0
 70
    58
 90
        3
176
     1
 90
        2
176
     1
 90
        0
176
     1
 90
        0
176
     1
 40
0.6
176
     1
 40
30.0
176
     1
 62
     7
420
 16777215
176
     1
 90
        2
176
     1
 90
        2
176
     1
 62
     7
176
     1
 62
   257
176
     1
 90
        1
176
     1
 90
        1
176
     1
 40
179.0
176
     1
 90
        8
176
     1
 62
     7
176
     1
 40
1.0
176
     1
 90
        1
176
     1
 90
        6
176
     1
 90
        2
176
     1
 62
     7
176
     1
 90
        3
176
     1
 90
        0
176
     1
 90
        0
176
     1
290
     0
176
     1
 90
        1
176
     1
 40
0.0
176
     1
 90
        0
176
     1
290
     0
176
     1
290
     1
176
     1
290
     1
176
     1
290
     0
176
     1
290
     0
176
     1
290
     0
176
     1
290
     0
176
     1
290
     0
176
     1
290
     0
176
     1
 90
       50
176
     1
 40
0.0
176
     1
 40
1.0
176
     1
 90
        0
176
     1
 62
    18
420
        0
176
     1
 90
       50
176
     1
 90
        3
176
     1
 62
     5
420
      255
176
     1
290
     0
176
     1
 90
       50
176
     1
 90
       50
176
     1
 90
       50
176
     1
290
     0
176
     1
 90
       50
176
     1
 62
   256
176
     0
 40
1.0
176
     0
 90
        2
176
     1
  1
strokes_ogs.tif
176
     1
290
     0
176
     1
 40
1.0
176
     1
 40
1.0
176
     1
  0
VISUALSTYLE
  5
34
102
{ACAD_REACTORS
330
29
102
}
330
29
100
AcDbVisualStyle
  2
Dim
 70
    11
177
     3
291
     1
 70
    58
 90
        2
176
     1
 90
        2
176
     1
 90
        0
176
     1
 90
        0
176
     1
 40
0.6
176
     1
 40
30.0
176
     1
 62
     7
420
 16777215
176
     1
 90
        1
176
     1
 90
        4
176
     1
 62
     7
176
     1
 62
   257
176
     1
 90
        1
176
     1
 90
        1
176
     1
 40
1.0
176
     1
 90
        8
176
     1
 62
     7
176
     1
 40
1.0
176
     1
 90
        1
176
     1
 90
        6
176
     1
 90
        2
176
     1
 62
     7
176
     1
 90
        5
176
     1
 90
        0
176
     1
 90
        0
176
     1
290
     0
176
     1
 90
        1
176
     1
 40
-50.0
176
     1
 90
        0
176
     1
290
     0
176
     1
290
     1
176
     1
290
     1
176
     1
290
     0
176
     1
290
     0
176
     1
290
     0
176
     1
290
     0
176
     1
290
     0
176
     1
290
     0
176
     1
 90
       50
176
     1
 40
0.0
176
     1
 40
1.0
176
     1
 90
        0
176
     1
 62
    18
420
        0
176
     1
 90
       50
176
     1
 90
        3
176
     1
 62
     5
420
      255
176
     1
290
     0
176
     1
 90
       50
176
     1
 90
       50
176
     1
 90
       50
176
     1
290
     0
176
     1
 90
       50
176
     1
 62
   256
176
     0
 40
1.0
176
     0
 90
        2
176
     1
  1
strokes_ogs.tif
176
     1
290
     0
176
     1
 40
1.0
176
     1
 40
1.0
176
     1
  0
VISUALSTYLE
  5
41
102
{ACAD_REACTORS
330
29
102
}
330
29
100
AcDbVisualStyle
  2
EdgeColorOff
 70
    22
177
     3
291
     1
 70
    58
 90
        2
176
     0
 90
        2
176
     0
 90
        0
176
     0
 90
        0
176
     0
 40
0.6
176
     0
 40
30.0
176
     0
 62
     7
420
 16777215
176
     0
 90
        1
176
     0
 90
        4
176
     0
 62
     7
176
     0
 62
   257
176
     0
 90
        1
176
     0
 90
        1
176
     0
 40
1.0
176
     0
 90
        8
176
     2
 62
     7
176
     0
 40
1.0
176
     0
 90
        1
176
     0
 90
        6
176
     0
 90
        2
176
     0
 62
     7
176
     0
 90
        5
176
     0
 90
        0
176
     0
 90
        0
176
     0
290
     0
176
     0
 90
        1
176
     0
 40
0.0
176
     0
 90
        0
176
     0
290
     0
176
     1
290
     1
176
     1
290
     1
176
     1
290
     0
176
     1
290
     0
176
     1
290
     0
176
     1
290
     0
176
     1
290
     0
176
     1
290
     0
176
     1
 90
       50
176
     0
 40
0.0
176
     0
 40
1.0
176
     0
 90
        0
176
     0
 62
    18
420
        0
176
     0
 90
       50
176
     0
 90
        3
176
     0
 62
     5
420
      255
176
     0
290
     0
176
     1
 90
       50
176
     0
 90
       50
176
     0
 90
       50
176
     0
290
     0
176
     1
 90
       50
176
     0
 62
   256
176
     0
 40
1.0
176
     0
 90
        2
176
     0
  1
strokes_ogs.tif
176
     0
290
     0
176
     1
 40
1.0
176
     0
 40
1.0
176
     0
  0
VISUALSTYLE
  5
38
102
{ACAD_REACTORS
330
29
102
}
330
29
100
AcDbVisualStyle
  2
Facepattern
 70
    15
177
     3
291
     1
 70
    58
 90
        2
176
     1
 90
        2
176
     1
 90
        0
176
     1
 90
        0
176
     1
 40
0.6
176
     1
 40
30.0
176
     1
 62
     7
420
 16777215
176
     1
 90
        1
176
     1
 90
        4
176
     1
 62
     7
176
     1
 62
   257
176
     1
 90
        1
176
     1
 90
        1
176
     1
 40
1.0
176
     1
 90
        8
176
     1
 62
     7
176
     1
 40
1.0
176
     1
 90
        1
176
     1
 90
        6
176
     1
 90
        2
176
     1
 62
     7
176
     1
 90
        5
176
     1
 90
        0
176
     1
 90
        0
176
     1
290
     0
176
     1
 90
        1
176
     1
 40
0.0
176
     1
 90
        0
176
     1
290
     0
176
     1
290
     1
176
     1
290
     1
176
     1
290
     0
176
     1
290
     0
176
     1
290
     0
176
     1
290
     0
176
     1
290
     0
176
     1
290
     0
176
     1
 90
       50
176
     1
 40
0.0
176
     1
 40
1.0
176
     1
 90
        0
176
     1
 62
    18
420
        0
176
     1
 90
       50
176
     1
 90
        3
176
     1
 62
     5
420
      255
176
     1
290
     0
176
     1
 90
       50
176
     1
 90
       50
176
     1
 90
       50
176
     1
290
     0
176
     1
 90
       50
176
     1
 62
   256
176
     0
 40
1.0
176
     0
 90
        2
176
     1
  1
strokes_ogs.tif
176
     1
290
     0
176
     1
 40
1.0
176
     1
 40
1.0
176
     1
  0
VISUALSTYLE
  5
2A
102
{ACAD_REACTORS
330
29
102
}
330
29
100
AcDbVisualStyle
  2
Flat
 70
     0
177
     3
291
     1
 70
    58
 90
        2
176
     1
 90
        1
176
     1
 90
        1
176
     1
 90
        2
176
     1
 40
0.6
176
     1
 40
30.0
176
     1
 62
     7
420
 16777215
176
     1
 90
        0
176
     1
 90
        0
176
     1
 62
     7
176
     1
 62
   257
176
     1
 90
        1
176
     1
 90
        1
176
     1
 40
1.0
176
     1
 90
        8
176
     1
 62
     7
176
     1
 40
1.0
176
     1
 90
        1
176
     1
 90
        6
176
     1
 90
        2
176
     1
 62
     7
176
     1
 90
        5
176
     1
 90
        0
176
     1
 90
        0
176
     1
290
     0
176
     1
 90
       13
176
     1
 40
0.0
176
     1
 90
        0
176
     1
290
     0
176
     1
290
     1
176
     1
290
     1
176
     1
290
     0
176
     1
290
     0
176
     1
290
     0
176
     1
290
     0
176
     1
290
     0
176
     1
290
     0
176
     1
 90
       50
176
     1
 40
0.0
176
     1
 40
1.0
176
     1
 90
        0
176
     1
 62
    18
420
        0
176
     1
 90
       50
176
     1
 90
        3
176
     1
 62
     5
420
      255
176
     1
290
     0
176
     1
 90
       50
176
     1
 90
       50
176
     1
 90
       50
176
     1
290
     0
176
     1
 90
       50
176
     1
 62
   256
176
     0
 40
1.0
176
     0
 90
        2
176
     1
  1
strokes_ogs.tif
176
     1
290
     0
176
     1
 40
1.0
176
     1
 40
1.0
176
     1
  0
VISUALSTYLE
  5
2B
102
{ACAD_REACTORS
330
29
102
}
330
29
100
AcDbVisualStyle
  2
FlatWithEdges
 70
     1
177
     3
291
     1
 70
    58
 90
        2
176
     1
 90
        1
176
     1
 90
        1
176
     1
 90
        2
176
     1
 40
0.6
176
     1
 40
30.0
176
     1
 62
     7
420
 16777215
176
     1
 90
        1
176
     1
 90
        0
176
     1
 62
     7
176
     1
 62
   257
176
     1
 90
        1
176
     1
 90
        1
176
     1
 40
1.0
176
     1
 90
        0
176
     1
 62
   257
176
     1
 40
1.0
176
     1
 90
        1
176
     1
 90
        6
176
     1
 90
        2
176
     1
 62
     7
176
     1
 90
        5
176
     1
 90
        0
176
     1
 90
        0
176
     1
290
     0
176
     1
 90
       13
176
     1
 40
0.0
176
     1
 90
        0
176
     1
290
     0
176
     1
290
     1
176
     1
290
     1
176
     1
290
     0
176
     1
290
     0
176
     1
290
     0
176
     1
290
     0
176
     1
290
     0
176
     1
290
     0
176
     1
 90
       50
176
     1
 40
0.0
176
     1
 40
1.0
176
     1
 90
        0
176
     1
 62
    18
420
        0
176
     1
 90
       50
176
     1
 90
        3
176
     1
 62
     5
420
      255
176
     1
290
     0
176
     1
 90
       50
176
     1
 90
       50
176
     1
 90
       50
176
     1
290
     0
176
     1
 90
       50
176
     1
 62
   256
176
     0
 40
1.0
176
     0
 90
        2
176
     1
  1
strokes_ogs.tif
176
     1
290
     0
176
     1
 40
1.0
176
     1
 40
1.0
176
     1
  0
VISUALSTYLE
  5
2C
102
{ACAD_REACTORS
330
29
102
}
330
29
100
AcDbVisualStyle
  2
Gouraud
 70
     2
177
     3
291
     1
 70
    58
 90
        2
176
     1
 90
        2
176
     1
 90
        1
176
     1
 90
        2
176
     1
 40
0.6
176
     1
 40
30.0
176
     1
 62
     7
420
 16777215
176
     1
 90
        0
176
     1
 90
        0
176
     1
 62
     7
176
     1
 62
   257
176
     1
 90
        1
176
     1
 90
        1
176
     1
 40
1.0
176
     1
 90
        0
176
     1
 62
     7
176
     1
 40
1.0
176
     1
 90
        1
176
     1
 90
        6
176
     1
 90
        2
176
     1
 62
     7
176
     1
 90
        5
176
     1
 90
        0
176
     1
 90
        0
176
     1
290
     0
176
     1
 90
       13
176
     1
 40
0.0
176
     1
 90
        0
176
     1
290
     0
176
     1
290
     1
176
     1
290
     1
176
     1
290
     0
176
     1
290
     0
176
     1
290
     0
176
     1
290
     0
176
     1
290
     0
176
     1
290
     0
176
     1
 90
       50
176
     1
 40
0.0
176
     1
 40
1.0
176
     1
 90
        0
176
     1
 62
    18
420
        0
176
     1
 90
       50
176
     1
 90
        3
176
     1
 62
     5
420
      255
176
     1
290
     0
176
     1
 90
       50
176
     1
 90
       50
176
     1
 90
       50
176
     1
290
     0
176
     1
 90
       50
176
     1
 62
   256
176
     0
 40
1.0
176
     0
 90
        2
176
     1
  1
strokes_ogs.tif
176
     1
290
     0
176
     1
 40
1.0
176
     1
 40
1.0
176
     1
  0
VISUALSTYLE
  5
2D
102
{ACAD_REACTORS
330
29
102
}
330
29
100
AcDbVisualStyle
  2
GouraudWithEdges
 70
     3
177
     3
291
     1
 70
    58
 90
        2
176
     1
 90
        2
176
     1
 90
        1
176
     1
 90
        2
176
     1
 40
0.6
176
     1
 40
30.0
176
     1
 62
     7
420
 16777215
176
     1
 90
        1
176
     1
 90
        0
176
     1
 62
     7
176
     1
 62
   257
176
     1
 90
        1
176
     1
 90
        1
176
     1
 40
1.0
176
     1
 90
        0
176
     1
 62
   257
176
     1
 40
1.0
176
     1
 90
        1
176
     1
 90
        6
176
     1
 90
        2
176
     1
 62
     7
176
     1
 90
        5
176
     1
 90
        0
176
     1
 90
        0
176
     1
290
     0
176
     1
 90
       13
176
     1
 40
0.0
176
     1
 90
        0
176
     1
290
     0
176
     1
290
     1
176
     1
290
     1
176
     1
290
     0
176
     1
290
     0
176
     1
290
     0
176
     1
290
     0
176
     1
290
     0
176
     1
290
     0
176
     1
 90
       50
176
     1
 40
0.0
176
     1
 40
1.0
176
     1
 90
        0
176
     1
 62
    18
420
        0
176
     1
 90
       50
176
     1
 90
        3
176
     1
 62
     5
420
      255
176
     1
290
     0
176
     1
 90
       50
176
     1
 90
       50
176
     1
 90
       50
176
     1
290
     0
176
     1
 90
       50
176
     1
 62
   256
176
     0
 40
1.0
176
     0
 90
        2
176
     1
  1
strokes_ogs.tif
176
     1
290
     0
176
     1
 40
1.0
176
     1
 40
1.0
176
     1
  0
VISUALSTYLE
  5
31
102
{ACAD_REACTORS
330
29
102
}
330
29
100
AcDbVisualStyle
  2
Hidden
 70
     6
177
     3
291
     0
 70
    58
 90
        1
176
     1
 90
        2
176
     1
 90
        2
176
     1
 90
        0
176
     1
 40
0.6
176
     1
 40
30.0
176
     1
 62
     7
420
 16777215
176
     1
 90
        2
176
     1
 90
        2
176
     1
 62
     7
176
     1
 62
   257
176
     1
 90
        2
176
     1
 90
        1
176
     1
 40
40.0
176
     1
 90
        0
176
     1
 62
   257
176
     1
 40
1.0
176
     1
 90
        1
176
     1
 90
        6
176
     1
 90
        2
176
     1
 62
     7
176
     1
 90
        3
176
     1
 90
        0
176
     1
 90
        0
176
     1
290
     0
176
     1
 90
        1
176
     1
 40
0.0
176
     1
 90
        0
176
     1
290
     0
176
     1
290
     1
176
     1
290
     1
176
     1
290
     0
176
     1
290
     0
176
     1
290
     0
176
     1
290
     0
176
     1
290
     0
176
     1
290
     0
176
     1
 90
       50
176
     1
 40
0.0
176
     1
 40
1.0
176
     1
 90
        0
176
     1
 62
    18
420
        0
176
     1
 90
       50
176
     1
 90
        3
176
     1
 62
     5
420
      255
176
     1
290
     0
176
     1
 90
       50
176
     1
 90
       50
176
     1
 90
       50
176
     1
290
     0
176
     1
 90
       50
176
     1
 62
   256
176
     0
 40
1.0
176
     0
 90
        2
176
     1
  1
strokes_ogs.tif
176
     1
290
     0
176
     1
 40
1.0
176
     1
 40
1.0
176
     1
  0
VISUALSTYLE
  5
3F
102
{ACAD_REACTORS
330
29
102
}
330
29
100
AcDbVisualStyle
  2
JitterOff
 70
    20
177
     3
291
     1
 70
    58
 90
        2
176
     0
 90
        2
176
     0
 90
        0
176
     0
 90
        0
176
     0
 40
0.6
176
     0
 40
30.0
176
     0
 62
     7
420
 16777215
176
     0
 90
        1
176
     0
 90
        4
176
     0
 62
     7
176
     0
 62
   257
176
     0
 90
        1
176
     0
 90
        1
176
     0
 40
1.0
176
     0
 90
       10
176
     2
 62
     7
176
     0
 40
1.0
176
     0
 90
        1
176
     0
 90
        6
176
     0
 90
        2
176
     0
 62
     7
176
     0
 90
        5
176
     0
 90
        0
176
     0
 90
        0
176
     0
290
     0
176
     0
 90
        1
176
     0
 40
0.0
176
     0
 90
        0
176
     0
290
     0
176
     1
290
     1
176
     1
290
     1
176
     1
290
     0
176
     1
290
     0
176
     1
290
     0
176
     1
290
     0
176
     1
290
     0
176
     1
290
     0
176
     1
 90
       50
176
     0
 40
0.0
176
     0
 40
1.0
176
     0
 90
        0
176
     0
 62
    18
420
        0
176
     0
 90
       50
176
     0
 90
        3
176
     0
 62
     5
420
      255
176
     0
290
     0
176
     1
 90
       50
176
     0
 90
       50
176
     0
 90
       50
176
     0
290
     0
176
     1
 90
       50
176
     0
 62
   256
176
     0
 40
1.0
176
     0
 90
        2
176
     0
  1
strokes_ogs.tif
176
     0
290
     0
176
     1
 40
1.0
176
     0
 40
1.0
176
     0
  0
VISUALSTYLE
  5
37
102
{ACAD_REACTORS
330
29
102
}
330
29
100
AcDbVisualStyle
  2
Linepattern
 70
    14
177
     3
291
     1
 70
    58
 90
        2
176
     1
 90
        2
176
     1
 90
        0
176
     1
 90
        0
176
     1
 40
0.6
176
     1
 40
30.0
176
     1
 62
     7
420
 16777215
176
     1
 90
        1
176
     1
 90
        4
176
     1
 62
     7
176
     1
 62
   257
176
     1
 90
        7
176
     1
 90
        7
176
     1
 40
1.0
176
     1
 90
        8
176
     1
 62
     7
176
     1
 40
1.0
176
     1
 90
        1
176
     1
 90
        6
176
     1
 90
        2
176
     1
 62
     7
176
     1
 90
        5
176
     1
 90
        0
176
     1
 90
        0
176
     1
290
     0
176
     1
 90
        1
176
     1
 40
0.0
176
     1
 90
        0
176
     1
290
     0
176
     1
290
     1
176
     1
290
     1
176
     1
290
     0
176
     1
290
     0
176
     1
290
     0
176
     1
290
     0
176
     1
290
     0
176
     1
290
     0
176
     1
 90
       50
176
     1
 40
0.0
176
     1
 40
1.0
176
     1
 90
        0
176
     1
 62
    18
420
        0
176
     1
 90
       50
176
     1
 90
        3
176
     1
 62
     5
420
      255
176
     1
290
     0
176
     1
 90
       50
176
     1
 90
       50
176
     1
 90
       50
176
     1
290
     0
176
     1
 90
       50
176
     1
 62
   256
176
     0
 40
1.0
176
     0
 90
        2
176
     1
  1
strokes_ogs.tif
176
     1
290
     0
176
     1
 40
1.0
176
     1
 40
1.0
176
     1
  0
VISUALSTYLE
  5
40
102
{ACAD_REACTORS
330
29
102
}
330
29
100
AcDbVisualStyle
  2
OverhangOff
 70
    21
177
     3
291
     1
 70
    58
 90
        2
176
     0
 90
        2
176
     0
 90
        0
176
     0
 90
        0
176
     0
 40
0.6
176
     0
 40
30.0
176
     0
 62
     7
420
 16777215
176
     0
 90
        1
176
     0
 90
        4
176
     0
 62
     7
176
     0
 62
   257
176
     0
 90
        1
176
     0
 90
        1
176
     0
 40
1.0
176
     0
 90
        9
176
     2
 62
     7
176
     0
 40
1.0
176
     0
 90
        1
176
     0
 90
        6
176
     0
 90
        2
176
     0
 62
     7
176
     0
 90
        5
176
     0
 90
        0
176
     0
 90
        0
176
     0
290
     0
176
     0
 90
        1
176
     0
 40
0.0
176
     0
 90
        0
176
     0
290
     0
176
     1
290
     1
176
     1
290
     1
176
     1
290
     0
176
     1
290
     0
176
     1
290
     0
176
     1
290
     0
176
     1
290
     0
176
     1
290
     0
176
     1
 90
       50
176
     0
 40
0.0
176
     0
 40
1.0
176
     0
 90
        0
176
     0
 62
    18
420
        0
176
     0
 90
       50
176
     0
 90
        3
176
     0
 62
     5
420
      255
176
     0
290
     0
176
     1
 90
       50
176
     0
 90
       50
176
     0
 90
       50
176
     0
290
     0
176
     1
 90
       50
176
     0
 62
   256
176
     0
 40
1.0
176
     0
 90
        2
176
     0
  1
strokes_ogs.tif
176
     0
290
     0
176
     1
 40
1.0
176
     0
 40
1.0
176
     0
  0
VISUALSTYLE
  5
33
102
{ACAD_REACTORS
330
29
102
}
330
29
100
AcDbVisualStyle
  2
Realistic
 70
     8
177
     3
291
     0
 70
    58
 90
        2
176
     1
 90
        3
176
     1
 90
        0
176
     1
 90
        2
176
     1
 40
0.6
176
     1
 40
30.0
176
     1
 62
     7
420
 16777215
176
     1
 90
        0
176
     1
 90
        0
176
     1
 62
     7
176
     1
 62
   257
176
     1
 90
        1
176
     1
 90
        1
176
     1
 40
1.0
176
     1
 90
        8
176
     1
 62
   257
176
     1
 40
1.0
176
     1
 90
        1
176
     1
 90
        6
176
     1
 90
        2
176
     1
 62
     7
176
     1
 90
        3
176
     1
 90
        0
176
     1
 90
        0
176
     1
290
     0
176
     1
 90
       13
176
     1
 40
0.0
176
     1
 90
        0
176
     1
290
     0
176
     1
290
     1
176
     1
290
     1
176
     1
290
     0
176
     1
290
     0
176
     1
290
     0
176
     1
290
     0
176
     1
290
     0
176
     1
290
     0
176
     1
 90
       50
176
     1
 40
0.0
176
     1
 40
1.0
176
     1
 90
        0
176
     1
 62
    18
420
        0
176
     1
 90
       50
176
     1
 90
        3
176
     1
 62
     5
420
      255
176
     1
290
     0
176
     1
 90
       50
176
     1
 90
       50
176
     1
 90
       50
176
     1
290
     0
176
     1
 90
       50
176
     1
 62
   256
176
     0
 40
1.0
176
     0
 90
        2
176
     1
  1
strokes_ogs.tif
176
     1
290
     0
176
     1
 40
1.0
176
     1
 40
1.0
176
     1
  0
VISUALSTYLE
  5
3E
102
{ACAD_REACTORS
330
29
102
}
330
29
100
AcDbVisualStyle
  2
Shaded
 70
    27
177
     3
291
     0
 70
    58
 90
        2
176
     1
 90
        2
176
     1
 90
        1
176
     1
 90
        2
176
     1
 40
0.6
176
     1
 40
30.0
176
     1
 62
     7
420
 16777215
176
     1
 90
        0
176
     1
 90
        4
176
     1
 62
     7
176
     1
 62
   257
176
     1
 90
        1
176
     1
 90
        1
176
     1
 40
1.0
176
     1
 90
        8
176
     1
 62
   257
176
     1
 40
1.0
176
     1
 90
        1
176
     1
 90
        6
176
     1
 90
        2
176
     1
 62
     8
420
  7895160
176
     1
 90
        3
176
     1
 90
        0
176
     1
 90
        0
176
     1
290
     0
176
     1
 90
        5
176
     1
 40
0.0
176
     1
 90
        0
176
     1
290
     0
176
     1
290
     1
176
     1
290
     1
176
     1
290
     0
176
     1
290
     0
176
     1
290
     0
176
     1
290
     0
176
     1
290
     0
176
     1
290
     0
176
     1
 90
       50
176
     1
 40
0.0
176
     1
 40
1.0
176
     1
 90
        0
176
     1
 62
    18
420
        0
176
     1
 90
       50
176
     1
 90
        3
176
     1
 62
     5
420
      255
176
     1
290
     0
176
     1
 90
       50
176
     1
 90
       50
176
     1
 90
       50
176
     1
290
     0
176
     1
 90
       50
176
     1
 62
   256
176
     0
 40
1.0
176
     0
 90
        2
176
     1
  1
strokes_ogs.tif
176
     1
290
     0
176
     1
 40
1.0
176
     1
 40
1.0
176
     1
  0
VISUALSTYLE
  5
3D
102
{ACAD_REACTORS
330
29
102
}
330
29
100
AcDbVisualStyle
  2
Shaded with edges
 70
    26
177
     3
291
     0
 70
    58
 90
        2
176
     1
 90
        2
176
     1
 90
        1
176
     1
 90
        2
176
     1
 40
0.6
176
     1
 40
30.0
176
     1
 62
     7
420
 16777215
176
     1
 90
        1
176
     1
 90
        2
176
     1
 62
     7
176
     1
 62
   257
176
     1
 90
        2
176
     1
 90
        1
176
     1
 40
1.0
176
     1
 90
        8
176
     1
 62
   257
176
     1
 40
1.0
176
     1
 90
        1
176
     1
 90
        6
176
     1
 90
        2
176
     1
 62
     7
176
     1
 90
        3
176
     1
 90
        0
176
     1
 90
        0
176
     1
290
     0
176
     1
 90
        5
176
     1
 40
0.0
176
     1
 90
        0
176
     1
290
     0
176
     1
290
     1
176
     1
290
     1
176
     1
290
     0
176
     1
290
     0
176
     1
290
     0
176
     1
290
     0
176
     1
290
     0
176
     1
290
     0
176
     1
 90
       50
176
     1
 40
0.0
176
     1
 40
1.0
176
     1
 90
        0
176
     1
 62
    18
420
        0
176
     1
 90
       50
176
     1
 90
        3
176
     1
 62
     5
420
      255
176
     1
290
     0
176
     1
 90
       50
176
     1
 90
       50
176
     1
 90
       50
176
     1
290
     0
176
     1
 90
       50
176
     1
 62
   256
176
     0
 40
1.0
176
     0
 90
        2
176
     1
  1
strokes_ogs.tif
176
     1
290
     0
176
     1
 40
1.0
176
     1
 40
1.0
176
     1
  0
VISUALSTYLE
  5
3A
102
{ACAD_REACTORS
330
29
102
}
330
29
100
AcDbVisualStyle
  2
Shades of Gray
 70
    23
177
     3
291
     0
 70
    58
 90
        2
176
     1
 90
        2
176
     1
 90
        3
176
     1
 90
        0
176
     1
 40
0.6
176
     1
 40
30.0
176
     1
 62
     7
420
 16777215
176
     1
 90
        2
176
     1
 90
        2
176
     1
 62
     7
176
     1
 62
     7
176
     1
 90
        1
176
     1
 90
        1
176
     1
 40
40.0
176
     1
 90
        8
176
     1
 62
     7
176
     1
 40
1.0
176
     1
 90
        1
176
     1
 90
        6
176
     1
 90
        2
176
     1
 62
     7
176
     1
 90
        3
176
     1
 90
        0
176
     1
 90
        0
176
     1
290
     0
176
     1
 90
        1
176
     1
 40
0.0
176
     1
 90
        0
176
     1
290
     0
176
     1
290
     1
176
     1
290
     1
176
     1
290
     0
176
     1
290
     0
176
     1
290
     0
176
     1
290
     0
176
     1
290
     0
176
     1
290
     0
176
     1
 90
       50
176
     1
 40
0.0
176
     1
 40
1.0
176
     1
 90
        0
176
     1
 62
    18
420
        0
176
     1
 90
       50
176
     1
 90
        3
176
     1
 62
     5
420
      255
176
     1
290
     0
176
     1
 90
       50
176
     1
 90
       50
176
     1
 90
       50
176
     1
290
     0
176
     1
 90
       50
176
     1
 62
   256
176
     0
 40
1.0
176
     0
 90
        2
176
     1
  1
strokes_ogs.tif
176
     1
290
     0
176
     1
 40
1.0
176
     1
 40
1.0
176
     1
  0
VISUALSTYLE
  5
3B
102
{ACAD_REACTORS
330
29
102
}
330
29
100
AcDbVisualStyle
  2
Sketchy
 70
    24
177
     3
291
     0
 70
    58
 90
        1
176
     1
 90
        2
176
     1
 90
        2
176
     1
 90
        0
176
     1
 40
0.6
176
     1
 40
30.0
176
     1
 62
     7
420
 16777215
176
     1
 90
        2
176
     1
 90
        2
176
     1
 62
     7
176
     1
 62
     7
176
     1
 90
        1
176
     1
 90
        1
176
     1
 40
40.0
176
     1
 90
       11
176
     1
 62
     7
176
     1
 40
1.0
176
     1
 90
        1
176
     1
 90
        6
176
     1
 90
        2
176
     1
 62
     7
176
     1
 90
        6
176
     1
 90
        0
176
     1
 90
        0
176
     1
290
     0
176
     1
 90
        1
176
     1
 40
0.0
176
     1
 90
        0
176
     1
290
     0
176
     1
290
     1
176
     1
290
     1
176
     1
290
     0
176
     1
290
     0
176
     1
290
     0
176
     1
290
     0
176
     1
290
     0
176
     1
290
     0
176
     1
 90
       50
176
     1
 40
0.0
176
     1
 40
1.0
176
     1
 90
        0
176
     1
 62
    18
420
        0
176
     1
 90
       50
176
     1
 90
        3
176
     1
 62
     5
420
      255
176
     1
290
     0
176
     1
 90
       50
176
     1
 90
       50
176
     1
 90
       50
176
     1
290
     0
176
     1
 90
       50
176
     1
 62
   256
176
     0
 40
1.0
176
     0
 90
        2
176
     1
  1
strokes_ogs.tif
176
     1
290
     0
176
     1
 40
1.0
176
     1
 40
1.0
176
     1
  0
VISUALSTYLE
  5
36
102
{ACAD_REACTORS
330
29
102
}
330
29
100
AcDbVisualStyle
  2
Thicken
 70
    13
177
     3
291
     1
 70
    58
 90
        2
176
     1
 90
        2
176
     1
 90
        0
176
     1
 90
        0
176
     1
 40
0.6
176
     1
 40
30.0
176
     1
 62
     7
420
 16777215
176
     1
 90
        1
176
     1
 90
        4
176
     1
 62
     7
176
     1
 62
   257
176
     1
 90
        1
176
     1
 90
        1
176
     1
 40
1.0
176
     1
 90
       12
176
     1
 62
     7
176
     1
 40
1.0
176
     1
 90
        1
176
     1
 90
        6
176
     1
 90
        2
176
     1
 62
     7
176
     1
 90
        5
176
     1
 90
        0
176
     1
 90
        0
176
     1
290
     0
176
     1
 90
        1
176
     1
 40
0.0
176
     1
 90
        0
176
     1
290
     0
176
     1
290
     1
176
     1
290
     1
176
     1
290
     0
176
     1
290
     0
176
     1
290
     0
176
     1
290
     0
176
     1
290
     0
176
     1
290
     0
176
     1
 90
       50
176
     1
 40
0.0
176
     1
 40
1.0
176
     1
 90
        0
176
     1
 62
    18
420
        0
176
     1
 90
       50
176
     1
 90
        3
176
     1
 62
     5
420
      255
176
     1
290
     0
176
     1
 90
       50
176
     1
 90
       50
176
     1
 90
       50
176
     1
290
     0
176
     1
 90
       50
176
     1
 62
   256
176
     0
 40
1.0
176
     0
 90
        2
176
     1
  1
strokes_ogs.tif
176
     1
290
     0
176
     1
 40
1.0
176
     1
 40
1.0
176
     1
  0
VISUALSTYLE
  5
30
102
{ACAD_REACTORS
330
29
102
}
330
29
100
AcDbVisualStyle
  2
Wireframe
 70
     5
177
     3
291
     0
 70
    58
 90
        0
176
     1
 90
        2
176
     1
 90
        0
176
     1
 90
        0
176
     1
 40
0.6
176
     1
 40
30.0
176
     1
 62
     7
420
 16777215
176
     1
 90
        1
176
     1
 90
        4
176
     1
 62
     7
176
     1
 62
   257
176
     1
 90
        1
176
     1
 90
        1
176
     1
 40
1.0
176
     1
 90
        0
176
     1
 62
   257
176
     1
 40
1.0
176
     1
 90
        1
176
     1
 90
        6
176
     1
 90
        2
176
     1
 62
     7
176
     1
 90
        3
176
     1
 90
        0
176
     1
 90
        0
176
     1
290
     0
176
     1
 90
        1
176
     1
 40
0.0
176
     1
 90
        0
176
     1
290
     0
176
     1
290
     1
176
     1
290
     1
176
     1
290
     0
176
     1
290
     0
176
     1
290
     0
176
     1
290
     0
176
     1
290
     0
176
     1
290
     0
176
     1
 90
       50
176
     1
 40
0.0
176
     1
 40
1.0
176
     1
 90
        0
176
     1
 62
    18
420
        0
176
     1
 90
       50
176
     1
 90
        3
176
     1
 62
     5
420
      255
176
     1
290
     0
176
     1
 90
       50
176
     1
 90
       50
176
     1
 90
       50
176
     1
290
     0
176
     1
 90
       50
176
     1
 62
   256
176
     0
 40
1.0
176
     0
 90
        2
176
     1
  1
strokes_ogs.tif
176
     1
290
     0
176
     1
 40
1.0
176
     1
 40
1.0
176
     1
  0
VISUALSTYLE
  5
3C
102
{ACAD_REACTORS
330
29
102
}
330
29
100
AcDbVisualStyle
  2
X-Ray
 70
    25
177
     3
291
     0
 70
    58
 90
        2
176
     1
 90
        2
176
     1
 90
        1
176
     1
 90
        1
176
     1
 40
0.5
176
     1
 40
30.0
176
     1
 62
     7
420
 16777215
176
     1
 90
        1
176
     1
 90
        0
176
     1
 62
     7
176
     1
 62
   257
176
     1
 90
        1
176
     1
 90
        1
176
     1
 40
1.0
176
     1
 90
        8
176
     1
 62
     7
176
     1
 40
1.0
176
     1
 90
        1
176
     1
 90
        6
176
     1
 90
        2
176
     1
 62
     7
176
     1
 90
        3
176
     1
 90
        0
176
     1
 90
        0
176
     1
290
     0
176
     1
 90
       13
176
     1
 40
0.0
176
     1
 90
        0
176
     1
290
     0
176
     1
290
     1
176
     1
290
     1
176
     1
290
     0
176
     1
290
     0
176
     1
290
     0
176
     1
290
     0
176
     1
290
     0
176
     1
290
     0
176
     1
 90
       50
176
     1
 40
0.0
176
     1
 40
1.0
176
     1
 90
        0
176
     1
 62
    18
420
        0
176
     1
 90
       50
176
     1
 90
        3
176
     1
 62
     5
420
      255
176
     1
290
     0
176
     1
 90
       50
176
     1
 90
       50
176
     1
 90
       50
176
     1
290
     0
176
     1
 90
       50
176
     1
 62
   256
176
     0
 40
1.0
176
     0
 90
        2
176
     1
  1
strokes_ogs.tif
176
     1
290
     0
176
     1
 40
1.0
176
     1
 40
1.0
176
     1
  0
DICTIONARYVAR
  5
5F9
102
{ACAD_REACTORS
330
5F3
102
}
330
5F3
100
DictionaryVariables
280
     0
  1
1:1
  0
DICTIONARYVAR
  5
5F5
102
{ACAD_REACTORS
330
5F3
102
}
330
5F3
100
DictionaryVariables
280
     0
  1
STANDARD
  0
DICTIONARYVAR
  5
5F4
102
{ACAD_REACTORS
330
5F3
102
}
330
5F3
100
DictionaryVariables
280
     0
  1
STANDARD
  0
DICTIONARYVAR
  5
5F6
102
{ACAD_REACTORS
330
5F3
102
}
330
5F3
100
DictionaryVariables
280
     0
  1
Imperial24
  0
DICTIONARYVAR
  5
5F7
102
{ACAD_REACTORS
330
5F3
102
}
330
5F3
100
DictionaryVariables
280
     0
  1
Imperial24
  0
DICTIONARYVAR
  5
5FB
102
{ACAD_REACTORS
330
5F3
102
}
330
5F3
100
DictionaryVariables
280
     0
  1
1
  0
DICTIONARYVAR
  5
5FC
102
{ACAD_REACTORS
330
5F3
102
}
330
5F3
100
DictionaryVariables
280
     0
  1
15
  0
DICTIONARYVAR
  5
5FA
102
{ACAD_REACTORS
330
5F3
102
}
330
5F3
100
DictionaryVariables
280
     0
  1
0
  0
DICTIONARYVAR
  5
5F8
102
{ACAD_REACTORS
330
5F3
102
}
330
5F3
100
DictionaryVariables
280
     0
  1
0
  0
DICTIONARY
  5
1A
330
19
100
AcDbDictionary
280
     1
281
     1
  3
BUMPTILE
360
1C
  3
DIFFUSETILE
360
1B
  3
OPACITYTILE
360
1F
  3
REFLECTIONTILE
360
1E
  3
REFRACTIONTILE
360
20
  3
SPECULARTILE
360
1D
  0
DICTIONARY
  5
12
330
11
100
AcDbDictionary
280
     1
281
     1
  3
BUMPTILE
360
14
  3
DIFFUSETILE
360
13
  3
OPACITYTILE
360
17
  3
REFLECTIONTILE
360
16
  3
REFRACTIONTILE
360
18
  3
SPECULARTILE
360
15
  0
DICTIONARY
  5
22
330
21
100
AcDbDictionary
280
     1
281
     1
  3
BUMPTILE
360
24
  3
DIFFUSETILE
360
23
  3
OPACITYTILE
360
27
  3
REFLECTIONTILE
360
26
  3
REFRACTIONTILE
360
28
  3
SPECULARTILE
360
25
  0
DICTIONARY
  5
5FD
330
64
100
AcDbDictionary
280
     1
281
     1
  3
ACAD_ROUNDTRIP_2008_TABLESTYLE_CELLSTYLEMAP
360
5FE
  0
XRECORD
  5
1C
102
{ACAD_REACTORS
330
1A
102
}
330
1A
100
AcDbXrecord
280
     1
270
     1
271
     1
  0
XRECORD
  5
1B
102
{ACAD_REACTORS
330
1A
102
}
330
1A
100
AcDbXrecord
280
     1
270
     1
271
     1
  0
XRECORD
  5
1F
102
{ACAD_REACTORS
330
1A
102
}
330
1A
100
AcDbXrecord
280
     1
270
     1
271
     1
  0
XRECORD
  5
1E
102
{ACAD_REACTORS
330
1A
102
}
330
1A
100
AcDbXrecord
280
     1
270
     1
271
     1
  0
XRECORD
  5
20
102
{ACAD_REACTORS
330
1A
102
}
330
1A
100
AcDbXrecord
280
     1
270
     1
271
     1
  0
XRECORD
  5
1D
102
{ACAD_REACTORS
330
1A
102
}
330
1A
100
AcDbXrecord
280
     1
270
     1
271
     1
  0
XRECORD
  5
14
102
{ACAD_REACTORS
330
12
102
}
330
12
100
AcDbXrecord
280
     1
270
     1
271
     1
  0
XRECORD
  5
13
102
{ACAD_REACTORS
330
12
102
}
330
12
100
AcDbXrecord
280
     1
270
     1
271
     1
  0
XRECORD
  5
17
102
{ACAD_REACTORS
330
12
102
}
330
12
100
AcDbXrecord
280
     1
270
     1
271
     1
  0
XRECORD
  5
16
102
{ACAD_REACTORS
330
12
102
}
330
12
100
AcDbXrecord
280
     1
270
     1
271
     1
  0
XRECORD
  5
18
102
{ACAD_REACTORS
330
12
102
}
330
12
100
AcDbXrecord
280
     1
270
     1
271
     1
  0
XRECORD
  5
15
102
{ACAD_REACTORS
330
12
102
}
330
12
100
AcDbXrecord
280
     1
270
     1
271
     1
  0
XRECORD
  5
24
102
{ACAD_REACTORS
330
22
102
}
330
22
100
AcDbXrecord
280
     1
270
     1
271
     1
  0
XRECORD
  5
23
102
{ACAD_REACTORS
330
22
102
}
330
22
100
AcDbXrecord
280
     1
270
     1
271
     1
  0
XRECORD
  5
27
102
{ACAD_REACTORS
330
22
102
}
330
22
100
AcDbXrecord
280
     1
270
     1
271
     1
  0
XRECORD
  5
26
102
{ACAD_REACTORS
330
22
102
}
330
22
100
AcDbXrecord
280
     1
270
     1
271
     1
  0
XRECORD
  5
28
102
{ACAD_REACTORS
330
22
102
}
330
22
100
AcDbXrecord
280
     1
270
     1
271
     1
  0
XRECORD
  5
25
102
{ACAD_REACTORS
330
22
102
}
330
22
100
AcDbXrecord
280
     1
270
     1
271
     1
  0
CELLSTYLEMAP
  5
5FE
102
{ACAD_REACTORS
330
5FD
102
}
330
5FD
100
AcDbCellStyleMap
 90
        3
300
CELLSTYLE
  1
TABLEFORMAT_BEGIN
 90
        5
170
     1
 91
        0
 92
    32768
 62
   257
 93
        1
300
CONTENTFORMAT
  1
CONTENTFORMAT_BEGIN
 90
        0
 91
        0
 92
      512
 93
        0
300

 40
0.0
140
1.0
 94
        5
 62
     0
340
55
144
0.25
309
CONTENTFORMAT_END
171
     0
 94
        0
309
TABLEFORMAT_END
  1
CELLSTYLE_BEGIN
 90
        1
 91
        1
300
_TITLE
309
CELLSTYLE_END
300
CELLSTYLE
  1
TABLEFORMAT_BEGIN
 90
        5
170
     1
 91
        0
 92
        0
 62
   257
 93
        1
300
CONTENTFORMAT
  1
CONTENTFORMAT_BEGIN
 90
        0
 91
        0
 92
      512
 93
        0
300

 40
0.0
140
1.0
 94
        5
 62
     0
340
55
144
0.18
309
CONTENTFORMAT_END
171
     0
 94
        0
309
TABLEFORMAT_END
  1
CELLSTYLE_BEGIN
 90
        2
 91
        1
300
_HEADER
309
CELLSTYLE_END
300
CELLSTYLE
  1
TABLEFORMAT_BEGIN
 90
        5
170
     1
 91
        0
 92
        0
 62
   257
 93
        1
300
CONTENTFORMAT
  1
CONTENTFORMAT_BEGIN
 90
        0
 91
        0
 92
      512
 93
        0
300

 40
0.0
140
1.0
 94
        2
 62
     0
340
55
144
0.18
309
CONTENTFORMAT_END
171
     0
 94
        0
309
TABLEFORMAT_END
  1
CELLSTYLE_BEGIN
 90
        3
 91
        2
300
_DATA
309
CELLSTYLE_END
  0
ENDSEC
  0
EOF
