  0
SECTION
  2
HEADER
  9
$ACADVER
  1
AC1032
  9
$ACADMAINTVER
 90
        5
  9
$DWGCODEPAGE
  3
ANSI_932
  9
$REQUIREDVERSIONS
160
                 0
  9
$INSBASE
 10
0.0
 20
0.0
 30
0.0
  9
$EXTMIN
 10
0.0
 20
0.0
 30
0.0
  9
$EXTMAX
 10
420.0
 20
297.0
 30
0.0
  9
$LIMMIN
 10
0.0
 20
0.0
  9
$LIMMAX
 10
420.0
 20
297.0
  9
$ORTHOMODE
 70
     0
  9
$REGENMODE
 70
     1
  9
$FILLMODE
 70
     1
  9
$QTEXTMODE
 70
     0
  9
$MIRRTEXT
 70
     0
  9
$LTSCALE
 40
1.0
  9
$ATTMODE
 70
     1
  9
$TEXTSIZE
 40
0.2
  9
$TRACEWID
 40
0.05
  9
$TEXTSTYLE
  7
STANDARD
  9
$CLAYER
  8
0
  9
$CELTYPE
  6
CONTINUOUS
  9
$CECOLOR
 62
   256
  9
$CELTSCALE
 40
1.0
  9
$DISPSILH
 70
     0
  9
$DIMSCALE
 40
1.0
  9
$DIMASZ
 40
0.18
  9
$DIMEXO
 40
0.0625
  9
$DIMDLI
 40
0.38
  9
$DIMRND
 40
0.0
  9
$DIMDLE
 40
0.0
  9
$DIMEXE
 40
0.18
  9
$DIMTP
 40
0.0
  9
$DIMTM
 40
0.0
  9
$DIMTXT
 40
0.18
  9
$DIMCEN
 40
0.09
  9
$DIMTSZ
 40
0.0
  9
$DIMTOL
 70
     0
  9
$DIMLIM
 70
     0
  9
$DIMTIH
 70
     1
  9
$DIMTOH
 70
     1
  9
$DIMSE1
 70
     0
  9
$DIMSE2
 70
     0
  9
$DIMTAD
 70
     0
  9
$DIMZIN
 70
     0
  9
$DIMBLK
  1

  9
$DIMASO
 70
     1
  9
$DIMSHO
 70
     1
  9
$DIMPOST
  1

  9
$DIMAPOST
  1

  9
$DIMALT
 70
     0
  9
$DIMALTD
 70
     2
  9
$DIMALTF
 40
25.4
  9
$DIMLFAC
 40
1.0
  9
$DIMTOFL
 70
     0
  9
$DIMTVP
 40
0.0
  9
$DIMTIX
 70
     0
  9
$DIMSOXD
 70
     0
  9
$DIMSAH
 70
     0
  9
$DIMBLK1
  1

  9
$DIMBLK2
  1

  9
$DIMSTYLE
  2
Standard
  9
$DIMCLRD
 70
     0
  9
$DIMCLRE
 70
     0
  9
$DIMCLRT
 70
     0
  9
$DIMTFAC
 40
1.0
  9
$DIMGAP
 40
0.09
  9
$DIMJUST
 70
     0
  9
$DIMSD1
 70
     0
  9
$DIMSD2
 70
     0
  9
$DIMTOLJ
 70
     1
  9
$DIMTZIN
 70
     0
  9
$DIMALTZ
 70
     0
  9
$DIMALTTZ
 70
     0
  9
$DIMUPT
 70
     0
  9
$DIMDEC
 70
     4
  9
$DIMTDEC
 70
     4
  9
$DIMALTU
 70
     2
  9
$DIMALTTD
 70
     2
  9
$DIMTXSTY
  7
STANDARD
  9
$DIMAUNIT
 70
     0
  9
$DIMADEC
 70
     0
  9
$DIMALTRND
 40
0.0
  9
$DIMAZIN
 70
     0
  9
$DIMDSEP
 70
    46
  9
$DIMATFIT
 70
     3
  9
$DIMFRAC
 70
     0
  9
$DIMLDRBLK
  1

  9
$DIMLUNIT
 70
     2
  9
$DIMLWD
 70
    -2
  9
$DIMLWE
 70
    -2
  9
$DIMTMOVE
 70
     0
  9
$DIMFXL
 40
1.0
  9
$DIMFXLON
 70
     0
  9
$DIMJOGANG
 40
0.7853981633974483
  9
$DIMTFILL
 70
     0
  9
$DIMTFILLCLR
 70
     0
  9
$DIMARCSYM
 70
     0
  9
$DIMLTYPE
  6

  9
$DIMLTEX1
  6

  9
$DIMLTEX2
  6

  9
$DIMTXTDIRECTION
 70
     0
  9
$LUNITS
 70
     2
  9
$LUPREC
 70
     4
  9
$SKETCHINC
 40
0.1
  9
$FILLETRAD
 40
0.0
  9
$AUNITS
 70
     0
  9
$AUPREC
 70
     0
  9
$MENU
  1
.
  9
$ELEVATION
 40
0.0
  9
$PELEVATION
 40
0.0
  9
$THICKNESS
 40
0.0
  9
$LIMCHECK
 70
     0
  9
$CHAMFERA
 40
0.0
  9
$CHAMFERB
 40
0.0
  9
$CHAMFERC
 40
0.0
  9
$CHAMFERD
 40
0.0
  9
$SKPOLY
 70
     0
  9
$TDCREATE
 40
2459367.484907407
  9
$TDUCREATE
 40
2459367.109907407
  9
$TDUPDATE
 40
2459367.484907407
  9
$TDUUPDATE
 40
2459367.109907407
  9
$TDINDWG
 40
0.0000000000
  9
$TDUSRTIMER
 40
0.0000000000
  9
$USRTIMER
 70
     1
  9
$ANGBASE
 50
0.0
  9
$ANGDIR
 70
     0
  9
$PDMODE
 70
     0
  9
$PDSIZE
 40
0.0
  9
$PLINEWID
 40
0.0
  9
$SPLFRAME
 70
     0
  9
$SPLINETYPE
 70
     6
  9
$SPLINESEGS
 70
     8
  9
$HANDSEED
  5
3B8
  9
$SURFTAB1
 70
     6
  9
$SURFTAB2
 70
     6
  9
$SURFTYPE
 70
     6
  9
$SURFU
 70
     6
  9
$SURFV
 70
     6
  9
$UCSBASE
  2

  9
$UCSNAME
  2

  9
$UCSORG
 10
0.0
 20
0.0
 30
0.0
  9
$UCSXDIR
 10
1.0
 20
0.0
 30
0.0
  9
$UCSYDIR
 10
0.0
 20
1.0
 30
0.0
  9
$UCSORTHOREF
  2

  9
$UCSORTHOVIEW
 70
     0
  9
$UCSORGTOP
 10
0.0
 20
0.0
 30
0.0
  9
$UCSORGBOTTOM
 10
0.0
 20
0.0
 30
0.0
  9
$UCSORGLEFT
 10
0.0
 20
0.0
 30
0.0
  9
$UCSORGRIGHT
 10
0.0
 20
0.0
 30
0.0
  9
$UCSORGFRONT
 10
0.0
 20
0.0
 30
0.0
  9
$UCSORGBACK
 10
0.0
 20
0.0
 30
0.0
  9
$PUCSBASE
  2

  9
$PUCSNAME
  2

  9
$PUCSORG
 10
0.0
 20
0.0
 30
0.0
  9
$PUCSXDIR
 10
1.0
 20
0.0
 30
0.0
  9
$PUCSYDIR
 10
0.0
 20
1.0
 30
0.0
  9
$PUCSORTHOREF
  2

  9
$PUCSORTHOVIEW
 70
     0
  9
$PUCSORGTOP
 10
0.0
 20
0.0
 30
0.0
  9
$PUCSORGBOTTOM
 10
0.0
 20
0.0
 30
0.0
  9
$PUCSORGLEFT
 10
0.0
 20
0.0
 30
0.0
  9
$PUCSORGRIGHT
 10
0.0
 20
0.0
 30
0.0
  9
$PUCSORGFRONT
 10
0.0
 20
0.0
 30
0.0
  9
$PUCSORGBACK
 10
0.0
 20
0.0
 30
0.0
  9
$USERI1
 70
     0
  9
$USERI2
 70
     0
  9
$USERI3
 70
     0
  9
$USERI4
 70
     0
  9
$USERI5
 70
     0
  9
$USERR1
 40
0.0
  9
$USERR2
 40
0.0
  9
$USERR3
 40
0.0
  9
$USERR4
 40
0.0
  9
$USERR5
 40
0.0
  9
$WORLDVIEW
 70
     1
  9
$SHADEDGE
 70
     3
  9
$SHADEDIF
 70
    70
  9
$TILEMODE
 70
     1
  9
$MAXACTVP
 70
    64
  9
$PINSBASE
 10
0.0
 20
0.0
 30
0.0
  9
$PLIMCHECK
 70
     0
  9
$PEXTMIN
 10
1.000000000000000E+20
 20
1.000000000000000E+20
 30
1.000000000000000E+20
  9
$PEXTMAX
 10
-1.000000000000000E+20
 20
-1.000000000000000E+20
 30
-1.000000000000000E+20
  9
$PLIMMIN
 10
0.0
 20
0.0
  9
$PLIMMAX
 10
12.0
 20
9.0
  9
$UNITMODE
 70
     0
  9
$VISRETAIN
 70
     1
  9
$PLINEGEN
 70
     0
  9
$PSLTSCALE
 70
     1
  9
$TREEDEPTH
 70
  3020
  9
$CMLSTYLE
  2
Standard
  9
$CMLJUST
 70
     0
  9
$CMLSCALE
 40
1.0
  9
$PROXYGRAPHICS
 70
     1
  9
$MEASUREMENT
 70
     0
  9
$CELWEIGHT
370
    -1
  9
$ENDCAPS
280
     0
  9
$JOINSTYLE
280
     0
  9
$LWDISPLAY
290
     0
  9
$INSUNITS
 70
     0
  9
$HYPERLINKBASE
  1

  9
$STYLESHEET
  1

  9
$XEDIT
290
     1
  9
$CEPSNTYPE
380
     0
  9
$PSTYLEMODE
290
     1
  9
$FINGERPRINTGUID
  2
{8EE74E91-11B6-C043-A2CA-1E171B3E1DB0}
  9
$VERSIONGUID
  2
{69EF9D9D-E415-B449-9DF9-35019FC539F9}
  9
$EXTNAMES
290
     1
  9
$PSVPSCALE
 40
0.0
  9
$OLESTARTUP
290
     0
  9
$SORTENTS
280
   127
  9
$INDEXCTL
280
     0
  9
$HIDETEXT
280
     0
  9
$XCLIPFRAME
280
     2
  9
$HALOGAP
280
     0
  9
$OBSCOLOR
 70
   257
  9
$OBSLTYPE
280
     0
  9
$INTERSECTIONDISPLAY
280
     0
  9
$INTERSECTIONCOLOR
 70
   257
  9
$DIMASSOC
280
     1
  9
$PROJECTNAME
  1

  9
$CAMERADISPLAY
290
     0
  9
$LENSLENGTH
 40
50.0
  9
$CAMERAHEIGHT
 40
0.0
  9
$STEPSPERSEC
 40
2.0
  9
$STEPSIZE
 40
6.0
  9
$3DDWFPREC
 40
2.0
  9
$PSOLWIDTH
 40
0.25
  9
$PSOLHEIGHT
 40
4.0
  9
$LOFTANG1
 40
1.570796326794896
  9
$LOFTANG2
 40
1.570796326794896
  9
$LOFTMAG1
 40
0.0
  9
$LOFTMAG2
 40
0.0
  9
$LOFTPARAM
 70
     7
  9
$LOFTNORMALS
280
     1
  9
$LATITUDE
 40
37.795
  9
$LONGITUDE
 40
-122.394
  9
$NORTHDIRECTION
 40
0.0
  9
$TIMEZONE
 70
 -8000
  9
$LIGHTGLYPHDISPLAY
280
     1
  9
$TILEMODELIGHTSYNCH
280
     1
  9
$CMATERIAL
347
11
  9
$SOLIDHIST
280
     0
  9
$SHOWHIST
280
     1
  9
$DWFFRAME
280
     2
  9
$DGNFRAME
280
     0
  9
$REALWORLDSCALE
290
     1
  9
$INTERFERECOLOR
 62
     1
  9
$INTERFEREOBJVS
345
33
  9
$INTERFEREVPVS
346
30
  9
$CSHADOW
280
     0
  9
$SHADOWPLANELOCATION
 40
0.0
  0
ENDSEC
  0
SECTION
  2
CLASSES
  0
CLASS
  1
ACDBDICTIONARYWDFLT
  2
AcDbDictionaryWithDefault
  3
ObjectDBX Classes
 90
        0
 91
        1
280
     0
281
     0
  0
CLASS
  1
MATERIAL
  2
AcDbMaterial
  3
ObjectDBX Classes
 90
     1153
 91
        3
280
     0
281
     0
  0
CLASS
  1
VISUALSTYLE
  2
AcDbVisualStyle
  3
ObjectDBX Classes
 90
     4095
 91
       24
280
     0
281
     0
  0
CLASS
  1
SCALE
  2
AcDbScale
  3
ObjectDBX Classes
 90
     1153
 91
       17
280
     0
281
     0
  0
CLASS
  1
TABLESTYLE
  2
AcDbTableStyle
  3
ObjectDBX Classes
 90
     4095
 91
        1
280
     0
281
     0
  0
CLASS
  1
MLEADERSTYLE
  2
AcDbMLeaderStyle
  3
ACDB_MLEADERSTYLE_CLASS
 90
     4095
 91
        1
280
     0
281
     0
  0
CLASS
  1
ACDBSECTIONVIEWSTYLE
  2
AcDbSectionViewStyle
  3
ObjectDBX Classes
 90
     1025
 91
        1
280
     0
281
     0
  0
CLASS
  1
ACDBDETAILVIEWSTYLE
  2
AcDbDetailViewStyle
  3
ObjectDBX Classes
 90
     1025
 91
        1
280
     0
281
     0
  0
CLASS
  1
DICTIONARYVAR
  2
AcDbDictionaryVar
  3
ObjectDBX Classes
 90
        0
 91
        9
280
     0
281
     0
  0
CLASS
  1
CELLSTYLEMAP
  2
AcDbCellStyleMap
  3
ObjectDBX Classes
 90
     1152
 91
        1
280
     0
281
     0
  0
ENDSEC
  0
SECTION
  2
TABLES
  0
TABLE
  2
VPORT
  5
8
330
0
100
AcDbSymbolTable
 70
     1
  0
VPORT
  5
A5
330
8
100
AcDbSymbolTableRecord
100
AcDbViewportTableRecord
  2
*Active
 70
     0
 10
0.0
 20
0.0
 11
1.0
 21
1.0
 12
500.0
 22
500.0
 13
0.0
 23
0.0
 14
1.0
 24
1.0
 15
0.0
 25
0.0
 16
0.0
 26
0.0
 36
1.0
 17
0.0
 27
0.0
 37
0.0
 40
12.0
 41
1.0
 42
50.0
 43
0.0
 44
0.0
 50
0.0
 51
0.0
 71
     0
 72
   100
 73
     1
 74
     1
 75
     0
 76
     0
 77
     0
 78
     0
281
     0
 65
     1
110
0.0
120
0.0
130
0.0
111
1.0
121
0.0
131
0.0
112
0.0
122
1.0
132
0.0
 79
     0
146
0.0
348
2F
 60
     3
 61
     5
292
     1
282
     1
141
0.0
142
0.0
 63
   250
421
  3355443
  0
ENDTAB
  0
TABLE
  2
LTYPE
  5
5
330
0
100
AcDbSymbolTable
 70
    35
  0
LTYPE
  5
5A
330
5
100
AcDbSymbolTableRecord
100
AcDbLinetypeTableRecord
  2
ByBlock
 70
     0
  3

 72
    65
 73
     0
 40
0.0
  0
LTYPE
  5
5B
330
5
100
AcDbSymbolTableRecord
100
AcDbLinetypeTableRecord
  2
ByLayer
 70
     0
  3

 72
    65
 73
     0
 40
0.0
  0
LTYPE
  5
5C
330
5
100
AcDbSymbolTableRecord
100
AcDbLinetypeTableRecord
  2
CONTINUOUS
 70
     0
  3
実線
 72
    65
 73
     0
 40
0.0
  0
LTYPE
  5
73
330
5
100
AcDbSymbolTableRecord
100
AcDbLinetypeTableRecord
  2
DASHED1
 70
     0
  3
--  --  --  --  --  --  --  --  
 72
    65
 73
     2
 40
2.5
 49
1.25
 74
     0
 49
-1.25
 74
     0
  0
LTYPE
  5
74
330
5
100
AcDbSymbolTableRecord
100
AcDbLinetypeTableRecord
  2
DASHED2
 70
     0
  3
----    ----    ----    ----    
 72
    65
 73
     2
 40
5.0
 49
2.5
 74
     0
 49
-2.5
 74
     0
  0
LTYPE
  5
75
330
5
100
AcDbSymbolTableRecord
100
AcDbLinetypeTableRecord
  2
DASHED3
 70
     0
  3
------  ------  ------  ------  
 72
    65
 73
     2
 40
5.0
 49
3.75
 74
     0
 49
-1.25
 74
     0
  0
LTYPE
  5
76
330
5
100
AcDbSymbolTableRecord
100
AcDbLinetypeTableRecord
  2
CENTER1
 70
     0
  3
----- - ----- - ----- - ----- - 
 72
    65
 73
     4
 40
10.0
 49
6.25
 74
     0
 49
-1.25
 74
     0
 49
1.25
 74
     0
 49
-1.25
 74
     0
  0
LTYPE
  5
77
330
5
100
AcDbSymbolTableRecord
100
AcDbLinetypeTableRecord
  2
CENTER2
 70
     0
  3
----------  --  ----------  --  
 72
    65
 73
     4
 40
20.0
 49
12.5
 74
     0
 49
-2.5
 74
     0
 49
2.5
 74
     0
 49
-2.5
 74
     0
  0
LTYPE
  5
78
330
5
100
AcDbSymbolTableRecord
100
AcDbLinetypeTableRecord
  2
PHANTOM1
 70
     0
  3
--- - - --- - - --- - - --- - - 
 72
    65
 73
     6
 40
10.0
 49
3.25
 74
     0
 49
-1.25
 74
     0
 49
1.25
 74
     0
 49
-1.25
 74
     0
 49
1.25
 74
     0
 49
-1.25
 74
     0
  0
LTYPE
  5
79
330
5
100
AcDbSymbolTableRecord
100
AcDbLinetypeTableRecord
  2
PHANTOM2
 70
     0
  3
--------  -  -  --------  -  -  
 72
    65
 73
     6
 40
20.0
 49
10.0
 74
     0
 49
-2.5
 74
     0
 49
1.25
 74
     0
 49
-2.5
 74
     0
 49
1.25
 74
     0
 49
-2.5
 74
     0
  0
LTYPE
  5
7A
330
5
100
AcDbSymbolTableRecord
100
AcDbLinetypeTableRecord
  2
DOT
 70
     0
  3
-   -   -   -   -   -   -   -   
 72
    65
 73
     2
 40
2.5
 49
0.625
 74
     0
 49
-1.875
 74
     0
  0
LTYPE
  5
7B
330
5
100
AcDbSymbolTableRecord
100
AcDbLinetypeTableRecord
  2
DUMMY
 70
     0
  3
ダミー
 72
    65
 73
     0
 40
0.0
  0
LTYPE
  5
7C
330
5
100
AcDbSymbolTableRecord
100
AcDbLinetypeTableRecord
  2
RAND1
 70
     0
  3
ランダム線1
 72
    65
 73
     4
 40
10.0
 49
1.0
 74
     0
 49
-2.0
 74
     0
 49
3.0
 74
     0
 49
-4.0
 74
     0
  0
LTYPE
  5
7D
330
5
100
AcDbSymbolTableRecord
100
AcDbLinetypeTableRecord
  2
RAND2
 70
     0
  3
ランダム線2
 72
    65
 73
     4
 40
14.0
 49
2.0
 74
     0
 49
-3.0
 74
     0
 49
4.0
 74
     0
 49
-5.0
 74
     0
  0
LTYPE
  5
7E
330
5
100
AcDbSymbolTableRecord
100
AcDbLinetypeTableRecord
  2
RAND3
 70
     0
  3
ランダム線3
 72
    65
 73
     4
 40
18.0
 49
3.0
 74
     0
 49
-4.0
 74
     0
 49
5.0
 74
     0
 49
-6.0
 74
     0
  0
LTYPE
  5
7F
330
5
100
AcDbSymbolTableRecord
100
AcDbLinetypeTableRecord
  2
RAND4
 70
     0
  3
ランダム線4
 72
    65
 73
     4
 40
22.0
 49
4.0
 74
     0
 49
-5.0
 74
     0
 49
6.0
 74
     0
 49
-7.0
 74
     0
  0
LTYPE
  5
80
330
5
100
AcDbSymbolTableRecord
100
AcDbLinetypeTableRecord
  2
RAND5
 70
     0
  3
ランダム線5
 72
    65
 73
     4
 40
26.0
 49
5.0
 74
     0
 49
-6.0
 74
     0
 49
7.0
 74
     0
 49
-8.0
 74
     0
  0
LTYPE
  5
81
330
5
100
AcDbSymbolTableRecord
100
AcDbLinetypeTableRecord
  2
LONG1
 70
     0
  3
----------  --  ----------  --  
 72
    65
 73
     4
 40
40.0
 49
32.5
 74
     0
 49
-2.5
 74
     0
 49
2.5
 74
     0
 49
-2.5
 74
     0
  0
LTYPE
  5
82
330
5
100
AcDbSymbolTableRecord
100
AcDbLinetypeTableRecord
  2
LONG2
 70
     0
  3
--------  -  -  --------  -  -  
 72
    65
 73
     6
 40
40.0
 49
30.0
 74
     0
 49
-2.5
 74
     0
 49
1.25
 74
     0
 49
-2.5
 74
     0
 49
1.25
 74
     0
 49
-2.5
 74
     0
  0
LTYPE
  5
83
330
5
100
AcDbSymbolTableRecord
100
AcDbLinetypeTableRecord
  2
LONG3
 70
     0
  3
+++++++++++++++..+++++++++++++++
 72
    65
 73
     2
 40
40.0
 49
37.5
 74
     0
 49
-2.5
 74
     0
  0
LTYPE
  5
84
330
5
100
AcDbSymbolTableRecord
100
AcDbLinetypeTableRecord
  2
LONG4
 70
     0
  3
+++++++++++++++..+++++++++++++++
 72
    65
 73
     2
 40
80.0
 49
75.0
 74
     0
 49
-5.0
 74
     0
  0
LTYPE
  5
85
330
5
100
AcDbSymbolTableRecord
100
AcDbLinetypeTableRecord
  2
LONG5
 70
     0
  3
----------  --  ----------  --  
 72
    65
 73
     4
 40
60.0
 49
37.5
 74
     0
 49
-7.5
 74
     0
 49
7.5
 74
     0
 49
-7.5
 74
     0
  0
LTYPE
  5
86
330
5
100
AcDbSymbolTableRecord
100
AcDbLinetypeTableRecord
  2
DASHED
 70
     0
  3
-------   -------------   ------
 72
    65
 73
     2
 40
7.5
 49
6.0
 74
     0
 49
-1.5
 74
     0
  0
LTYPE
  5
87
330
5
100
AcDbSymbolTableRecord
100
AcDbLinetypeTableRecord
  2
DASHED_SPACED
 70
     0
  3
----        --------        ----
 72
    65
 73
     2
 40
12.0
 49
6.0
 74
     0
 49
-6.0
 74
     0
  0
LTYPE
  5
88
330
5
100
AcDbSymbolTableRecord
100
AcDbLinetypeTableRecord
  2
LONG_DASHED_DOTTED
 70
     0
  3
------------- --- --------------
 72
    65
 73
     4
 40
15.25
 49
12.0
 74
     0
 49
-1.5
 74
     0
 49
0.25
 74
     0
 49
-1.5
 74
     0
  0
LTYPE
  5
89
330
5
100
AcDbSymbolTableRecord
100
AcDbLinetypeTableRecord
  2
LONG_DASHED_DOUBLE-DOTTED
 70
     0
  3
----------- --- --- ------------
 72
    65
 73
     6
 40
17.0
 49
12.0
 74
     0
 49
-1.5
 74
     0
 49
0.25
 74
     0
 49
-1.5
 74
     0
 49
0.25
 74
     0
 49
-1.5
 74
     0
  0
LTYPE
  5
8A
330
5
100
AcDbSymbolTableRecord
100
AcDbLinetypeTableRecord
  2
LONG_DASHED_TRIPLICATE-DOTTED
 70
     0
  3
--------- --- --- --- ----------
 72
    65
 73
     8
 40
18.75
 49
12.0
 74
     0
 49
-1.5
 74
     0
 49
0.25
 74
     0
 49
-1.5
 74
     0
 49
0.25
 74
     0
 49
-1.5
 74
     0
 49
0.25
 74
     0
 49
-1.5
 74
     0
  0
LTYPE
  5
8B
330
5
100
AcDbSymbolTableRecord
100
AcDbLinetypeTableRecord
  2
DOTTED
 70
     0
  3
   -       -       -       -    
 72
    65
 73
     2
 40
1.75
 49
0.25
 74
     0
 49
-1.5
 74
     0
  0
LTYPE
  5
8C
330
5
100
AcDbSymbolTableRecord
100
AcDbLinetypeTableRecord
  2
CHAIN
 70
     0
  3
-------------- -- --------------
 72
    65
 73
     4
 40
18.5
 49
12.0
 74
     0
 49
-1.5
 74
     0
 49
3.5
 74
     0
 49
-1.5
 74
     0
  0
LTYPE
  5
8D
330
5
100
AcDbSymbolTableRecord
100
AcDbLinetypeTableRecord
  2
CHAIN_DOUBLE_DASH
 70
     0
  3
------------ -- -- -------------
 72
    65
 73
     6
 40
23.5
 49
12.0
 74
     0
 49
-1.5
 74
     0
 49
3.5
 74
     0
 49
-1.5
 74
     0
 49
3.5
 74
     0
 49
-1.5
 74
     0
  0
LTYPE
  5
8E
330
5
100
AcDbSymbolTableRecord
100
AcDbLinetypeTableRecord
  2
DASHED_DOTTED
 70
     0
  3
-----------     -     ----------
 72
    65
 73
     4
 40
9.25
 49
6.0
 74
     0
 49
-1.5
 74
     0
 49
0.25
 74
     0
 49
-1.5
 74
     0
  0
LTYPE
  5
8F
330
5
100
AcDbSymbolTableRecord
100
AcDbLinetypeTableRecord
  2
DOUBLE-DASHED_DOTTED
 70
     0
  3
------   -----------   -   -----
 72
    65
 73
     6
 40
16.75
 49
6.0
 74
     0
 49
-1.5
 74
     0
 49
6.0
 74
     0
 49
-1.5
 74
     0
 49
0.25
 74
     0
 49
-1.5
 74
     0
  0
LTYPE
  5
90
330
5
100
AcDbSymbolTableRecord
100
AcDbLinetypeTableRecord
  2
DASHED_DOUBLE-DOTTED
 70
     0
  3
---------    -    -    ---------
 72
    65
 73
     6
 40
11.0
 49
6.0
 74
     0
 49
-1.5
 74
     0
 49
0.25
 74
     0
 49
-1.5
 74
     0
 49
0.25
 74
     0
 49
-1.5
 74
     0
  0
LTYPE
  5
91
330
5
100
AcDbSymbolTableRecord
100
AcDbLinetypeTableRecord
  2
DOUBLE-DASHED_DOUBLE-DOTTED
 70
     0
  3
-----   ---------   -   -   ----
 72
    65
 73
     8
 40
18.5
 49
6.0
 74
     0
 49
-1.5
 74
     0
 49
6.0
 74
     0
 49
-1.5
 74
     0
 49
0.25
 74
     0
 49
-1.5
 74
     0
 49
0.25
 74
     0
 49
-1.5
 74
     0
  0
LTYPE
  5
92
330
5
100
AcDbSymbolTableRecord
100
AcDbLinetypeTableRecord
  2
DASHED_TRIPLICATE-DOTTED
 70
     0
  3
-------    -    -    -    ------
 72
    65
 73
     8
 40
12.75
 49
6.0
 74
     0
 49
-1.5
 74
     0
 49
0.25
 74
     0
 49
-1.5
 74
     0
 49
0.25
 74
     0
 49
-1.5
 74
     0
 49
0.25
 74
     0
 49
-1.5
 74
     0
  0
LTYPE
  5
93
330
5
100
AcDbSymbolTableRecord
100
AcDbLinetypeTableRecord
  2
DOUBLE-DASHED_TRIPLICATE-DOTTED
 70
     0
  3
-----  ---------  -  -  -  -----
 72
    65
 73
    10
 40
20.25
 49
6.0
 74
     0
 49
-1.5
 74
     0
 49
6.0
 74
     0
 49
-1.5
 74
     0
 49
0.25
 74
     0
 49
-1.5
 74
     0
 49
0.25
 74
     0
 49
-1.5
 74
     0
 49
0.25
 74
     0
 49
-1.5
 74
     0
  0
LTYPE
  5
94
330
5
100
AcDbSymbolTableRecord
100
AcDbLinetypeTableRecord
  2
UNDEFINED
 70
     0
  3
--------------------------------
 72
    65
 73
     0
 40
0.0
  0
ENDTAB
  0
TABLE
  2
LAYER
  5
2
330
0
100
AcDbSymbolTable
 70
    14
  0
LAYER
  5
54
330
2
100
AcDbSymbolTableRecord
100
AcDbLayerTableRecord
  2
0
 70
     0
 62
     7
  6
CONTINUOUS
370
    -3
390
F
347
21
348
0
  0
LAYER
  5
96
330
2
100
AcDbSymbolTableRecord
100
AcDbLayerTableRecord
  2
_4-0_通り心
 70
     0
 62
     7
  6
CONTINUOUS
370
    -3
390
F
347
21
348
0
  0
LAYER
  5
97
330
2
100
AcDbSymbolTableRecord
100
AcDbLayerTableRecord
  2
_4-4_見え掛り
 70
     0
 62
     7
  6
CONTINUOUS
370
    -3
390
F
347
21
348
0
  0
LAYER
  5
98
330
2
100
AcDbSymbolTableRecord
100
AcDbLayerTableRecord
  2
_4-6_建具
 70
     0
 62
     7
  6
CONTINUOUS
370
    -3
390
F
347
21
348
0
  0
LAYER
  5
99
330
2
100
AcDbSymbolTableRecord
100
AcDbLayerTableRecord
  2
_4-B_予備
 70
     0
 62
     7
  6
CONTINUOUS
370
    -3
390
F
347
21
348
0
  0
LAYER
  5
9A
330
2
100
AcDbSymbolTableRecord
100
AcDbLayerTableRecord
  2
_4-C_ハッチ
 70
     0
 62
     7
  6
CONTINUOUS
370
    -3
390
F
347
21
348
0
  0
LAYER
  5
9B
330
2
100
AcDbSymbolTableRecord
100
AcDbLayerTableRecord
  2
_4-D_寸法
 70
     0
 62
     7
  6
CONTINUOUS
370
    -3
390
F
347
21
348
0
  0
LAYER
  5
9C
330
2
100
AcDbSymbolTableRecord
100
AcDbLayerTableRecord
  2
_4-E_文字
 70
     0
 62
     7
  6
CONTINUOUS
370
    -3
390
F
347
21
348
0
  0
LAYER
  5
9D
330
2
100
AcDbSymbolTableRecord
100
AcDbLayerTableRecord
  2
_4-F_補助線
 70
     0
 62
     7
  6
CONTINUOUS
370
    -3
390
F
347
21
348
0
  0
LAYER
  5
9E
330
2
100
AcDbSymbolTableRecord
100
AcDbLayerTableRecord
  2
_F-0_F-0___
 70
     0
 62
     7
  6
CONTINUOUS
370
    -3
390
F
347
21
348
0
  0
LAYER
  5
9F
330
2
100
AcDbSymbolTableRecord
100
AcDbLayerTableRecord
  2
_F-1_図面枠
 70
     0
 62
     7
  6
CONTINUOUS
370
    -3
390
F
347
21
348
0
  0
LAYER
  5
A0
330
2
100
AcDbSymbolTableRecord
100
AcDbLayerTableRecord
  2
_F-E_文字
 70
     0
 62
     7
  6
CONTINUOUS
370
    -3
390
F
347
21
348
0
  0
LAYER
  5
A1
330
2
100
AcDbSymbolTableRecord
100
AcDbLayerTableRecord
  2
_F-F_補助線
 70
     0
 62
     7
  6
CONTINUOUS
370
    -3
390
F
347
21
348
0
  0
LAYER
  5
A2
330
2
100
AcDbSymbolTableRecord
100
AcDbLayerTableRecord
  2
ADD_LINE
 70
     0
 62
     7
  6
CONTINUOUS
370
    -3
390
F
347
21
348
0
  0
ENDTAB
  0
TABLE
  2
STYLE
  5
3
330
0
100
AcDbSymbolTable
 70
     3
  0
STYLE
  5
55
330
3
100
AcDbSymbolTableRecord
100
AcDbTextStyleTableRecord
  2
STANDARD
 70
     0
 40
0.0
 41
1.0
 50
0.0
 71
     0
 42
0.2
  3
txt
  4
bigfont.shx
  0
STYLE
  5
59
330
3
100
AcDbSymbolTableRecord
100
AcDbTextStyleTableRecord
  2
Annotative
 70
     0
 40
0.0
 41
1.0
 50
0.0
 71
     0
 42
0.2
  3
txt
  4

1001
AcadAnnotative
1000
AnnotativeData
1002
{
1070
     1
1070
     1
1002
}
  0
STYLE
  5
95
330
3
100
AcDbSymbolTableRecord
100
AcDbTextStyleTableRecord
  2
TATEGAKI
 70
     4
 40
0.0
 41
1.0
 50
0.0
 71
     0
 42
1.0
  3
txt
  4
bigfont.shx
  0
ENDTAB
  0
TABLE
  2
VIEW
  5
6
330
0
100
AcDbSymbolTable
 70
     0
  0
ENDTAB
  0
TABLE
  2
UCS
  5
7
330
0
100
AcDbSymbolTable
 70
     0
  0
ENDTAB
  0
TABLE
  2
APPID
  5
9
330
0
100
AcDbSymbolTable
 70
     2
  0
APPID
  5
56
330
9
100
AcDbSymbolTableRecord
100
AcDbRegAppTableRecord
  2
ACAD
 70
     0
  0
APPID
  5
5D
330
9
100
AcDbSymbolTableRecord
100
AcDbRegAppTableRecord
  2
AcadAnnotative
 70
     0
  0
ENDTAB
  0
TABLE
  2
DIMSTYLE
  5
A
330
0
100
AcDbSymbolTable
 70
     2
100
AcDbDimStyleTable
 71
     0
  0
DIMSTYLE
105
57
330
A
100
AcDbSymbolTableRecord
100
AcDbDimStyleTableRecord
  2
Standard
 70
     0
340
55
  0
DIMSTYLE
105
58
330
A
100
AcDbSymbolTableRecord
100
AcDbDimStyleTableRecord
  2
Annotative
 70
     0
340
55
1001
AcadAnnotative
1000
AnnotativeData
1002
{
1070
     1
1070
     1
1002
}
  0
ENDTAB
  0
TABLE
  2
BLOCK_RECORD
  5
1
330
0
100
AcDbSymbolTable
 70
     1
  0
BLOCK_RECORD
  5
6F
330
1
100
AcDbSymbolTableRecord
100
AcDbBlockTableRecord
  2
*Model_Space
340
72
 70
     0
280
     1
281
     0
  0
BLOCK_RECORD
  5
6B
330
1
100
AcDbSymbolTableRecord
100
AcDbBlockTableRecord
  2
*Paper_Space
340
6E
 70
     0
280
     1
281
     0
  0
BLOCK_RECORD
  5
A6
330
1
100
AcDbSymbolTableRecord
100
AcDbBlockTableRecord
  2
-000-レベル１
340
0
102
{BLKREFS
331
100
102
}
 70
     0
280
     1
281
     0
  0
ENDTAB
  0
ENDSEC
  0
SECTION
  2
BLOCKS
  0
BLOCK
  5
70
330
6F
100
AcDbEntity
  8
0
100
AcDbBlockBegin
  2
*Model_Space
 70
     0
 10
0.0
 20
0.0
 30
0.0
  3
*Model_Space
  1

  0
ENDBLK
  5
71
330
6F
100
AcDbEntity
  8
0
100
AcDbBlockEnd
  0
BLOCK
  5
6C
330
6B
100
AcDbEntity
 67
     1
  8
0
100
AcDbBlockBegin
  2
*Paper_Space
 70
     0
 10
0.0
 20
0.0
 30
0.0
  3
*Paper_Space
  1

  0
ENDBLK
  5
6D
330
6B
100
AcDbEntity
 67
     1
  8
0
100
AcDbBlockEnd
  0
BLOCK
  5
A7
330
A6
100
AcDbEntity
  8
0
100
AcDbBlockBegin
  2
-000-レベル１
 70
     0
 10
0.0
 20
0.0
 30
0.0
  3
-000-レベル１
  1

  0
TEXT
  5
A8
330
A6
100
AcDbEntity
  8
_4-E_文字
 62
     3
100
AcDbText
 10
47.20511402533815
 20
-25.77027028034132
 30
0.0
 40
2.5
  1
±0
 41
0.8
100
AcDbText
  0
TEXT
  5
A9
330
A6
100
AcDbEntity
  8
_4-E_文字
 62
     3
100
AcDbText
 10
36.224079274239
 20
-44.42539064887696
 30
0.0
 40
2.5
  1
±0
 41
0.8
100
AcDbText
  0
TEXT
  5
AA
330
A6
100
AcDbEntity
  8
_4-E_文字
 62
     3
100
AcDbText
 10
-8.840273413306002
 20
-52.63524317052695
 30
0.0
 40
2.5
  1
-1.0
 50
359.999999999631
 41
0.8
100
AcDbText
  0
TEXT
  5
AB
330
A6
100
AcDbEntity
  8
_4-E_文字
 62
     3
100
AcDbText
 10
-3.856693451223803
 20
-6.125215683466121
 30
0.0
 40
2.5
  1
-1.0
 41
0.8
100
AcDbText
  0
TEXT
  5
AC
330
A6
100
AcDbEntity
  8
_4-E_文字
 62
     3
100
AcDbText
 10
-61.72442134519929
 20
-31.72223996105469
 30
0.0
 40
2.5
  1
-1.0
 50
359.999999999631
 41
0.8
100
AcDbText
  0
TEXT
  5
AD
330
A6
100
AcDbEntity
  8
_4-E_文字
 62
     3
100
AcDbText
 10
-70.09797013720701
 20
-54.25832724177389
 30
0.0
 40
2.5
  1
-1.5
 41
0.8
100
AcDbText
  0
TEXT
  5
AE
330
A6
100
AcDbEntity
  8
_4-E_文字
 62
     3
100
AcDbText
 10
-55.19204577882575
 20
54.67499219341834
 30
0.0
 40
2.5
  1
-1.0
 50
359.999999999631
 41
0.8
100
AcDbText
  0
TEXT
  5
AF
330
A6
100
AcDbEntity
  8
_4-E_文字
 62
     3
100
AcDbText
 10
35.92011866913079
 20
84.41717584070794
 30
0.0
 40
2.5
  1
-1.5
 50
0.0000000026310161
 41
0.8
100
AcDbText
  0
TEXT
  5
B0
330
A6
100
AcDbEntity
  8
_4-E_文字
 62
     3
100
AcDbText
 10
42.98901830521601
 20
52.03045869157371
 30
0.0
 40
2.5
  1
-1.0
 50
359.999999999631
 41
0.8
100
AcDbText
  0
TEXT
  5
B1
330
A6
100
AcDbEntity
  8
_4-E_文字
 62
     3
100
AcDbText
 10
46.67831513800864
 20
-28.6149842719207
 30
0.0
 40
2.5
  1
＝基準GL
 50
0.0000000003768092
 41
0.8
100
AcDbText
  0
ENDBLK
  5
B2
330
A6
100
AcDbEntity
  8
0
100
AcDbBlockEnd
  0
ENDSEC
  0
SECTION
  2
ENTITIES
  0
LINE
  5
B3
330
6F
100
AcDbEntity
  8
_F-F_補助線
  6
Continuous
 62
     9
100
AcDbLine
 10
209.9999999999697
 20
0.0
 30
0.0
 11
209.9999999999697
 21
297.0
 31
0.0
  0
LINE
  5
B4
330
6F
100
AcDbEntity
  8
ADD_LINE
  6
DOT
 62
    18
100
AcDbLine
 10
181.7171717171414
 20
23.33571428571429
 30
0.0
 11
202.1899218510797
 21
23.33571428571429
 31
0.0
  0
LINE
  5
B5
330
6F
100
AcDbEntity
  8
_F-0_F-0___
  6
Continuous
 62
     9
100
AcDbLine
 10
209.9999999999697
 20
297.0
 30
0.0
 11
209.9999999999697
 21
0.0
 31
0.0
  0
LINE
  5
B6
330
6F
100
AcDbEntity
  8
_F-0_F-0___
  6
Continuous
 62
     9
100
AcDbLine
 10
209.9999999999697
 20
0.0
 30
0.0
 11
209.9999999999697
 21
297.0
 31
0.0
  0
LINE
  5
B7
330
6F
100
AcDbEntity
  8
ADD_LINE
  6
DOT
 62
     9
100
AcDbLine
 10
199.3939393939091
 20
0.0
 30
0.0
 11
199.3939393939091
 21
297.0
 31
0.0
  0
LINE
  5
B8
330
6F
100
AcDbEntity
  8
ADD_LINE
  6
DOT
 62
    18
100
AcDbLine
 10
204.6969696969394
 20
297.0
 30
0.0
 11
204.6969696969394
 21
0.0
 31
0.0
  0
LINE
  5
B9
330
6F
100
AcDbEntity
  8
ADD_LINE
  6
DOT
 62
     9
100
AcDbLine
 10
10.60606060603032
 20
0.0
 30
0.0
 11
10.60606060603032
 21
297.0
 31
0.0
  0
LINE
  5
BA
330
6F
100
AcDbEntity
  8
ADD_LINE
  6
DOT
 62
    18
100
AcDbLine
 10
5.303030303000014
 20
297.0
 30
0.0
 11
5.303030303000014
 21
0.0
 31
0.0
  0
LINE
  5
BB
330
6F
100
AcDbEntity
  8
ADD_LINE
  6
DOT
 62
     9
100
AcDbLine
 10
123.1777891537709
 20
178.0909090909091
 30
0.0
 11
123.1777891537709
 21
94.09090909090908
 31
0.0
  0
LINE
  5
BC
330
6F
100
AcDbEntity
  8
ADD_LINE
  6
DOT
 62
     9
100
AcDbLine
 10
167.5414255174073
 20
112.2727272727273
 30
0.0
 11
131.5414255174073
 21
112.2727272727273
 31
0.0
  0
LINE
  5
BD
330
6F
100
AcDbEntity
  8
ADD_LINE
  6
DOT
 62
     9
100
AcDbLine
 10
163.1777891537709
 20
139.9090909090909
 30
0.0
 11
163.1777891537709
 21
90.00000000000001
 31
0.0
  0
LINE
  5
BE
330
6F
100
AcDbEntity
  8
ADD_LINE
  6
DOT
 62
     9
100
AcDbLine
 10
160.8308383735963
 20
263.0632667593257
 30
0.0
 11
205.7508055933466
 21
263.0632667593257
 31
0.0
  0
LINE
  5
BF
330
6F
100
AcDbEntity
  8
ADD_LINE
  6
DOT
 62
     9
100
AcDbLine
 10
182.6491081660465
 20
279.1061121949507
 30
0.0
 11
182.6491081660465
 21
237.4017925939501
 31
0.0
  0
LINE
  5
C0
330
6F
100
AcDbEntity
  8
ADD_LINE
  6
DOT
 62
     9
100
AcDbLine
 10
166.3732600322246
 20
264.4872189603046
 30
0.0
 11
197.9856897602364
 21
261.7214897325937
 31
0.0
  0
LINE
  5
C1
330
6F
100
AcDbEntity
  8
ADD_LINE
  6
DOT
 62
     9
100
AcDbLine
 10
180.7491022059831
 20
241.3460992602432
 30
0.0
 11
183.915126177019
 21
277.5339188409796
 31
0.0
  0
LINE
  5
C2
330
6F
100
AcDbEntity
  8
_F-0_F-0___
  6
Continuous
 62
     9
100
AcDbLine
 10
209.9999999999697
 20
0.0
 30
0.0
 11
182.9972010094393
 21
0.0
 31
0.0
  0
LINE
  5
C3
330
6F
100
AcDbEntity
  8
_F-0_F-0___
  6
Continuous
 62
     9
100
AcDbLine
 10
182.9972010094393
 20
0.0
 30
0.0
 11
209.9999999999697
 21
0.0
 31
0.0
  0
LINE
  5
C4
330
6F
100
AcDbEntity
  8
ADD_LINE
  6
DOT
 62
     9
100
AcDbLine
 10
83.17778915377093
 20
216.2727272727273
 30
0.0
 11
83.17778915377093
 21
173.9227272727272
 31
0.0
  0
LINE
  5
C5
330
6F
100
AcDbEntity
  8
ADD_LINE
  6
DOT
 62
     9
100
AcDbLine
 10
83.17778915377093
 20
172.4227272727272
 30
0.0
 11
83.17778915377093
 21
98.1818181818182
 31
0.0
  0
LINE
  5
C6
330
6F
100
AcDbEntity
  8
ADD_LINE
  6
DOT
 62
     9
100
AcDbLine
 10
141.6482759817977
 20
76.9667528240075
 30
0.0
 11
200.4144485842984
 21
76.9667528240075
 31
0.0
  0
LINE
  5
C7
330
6F
100
AcDbEntity
  8
ADD_LINE
  6
DOT
 62
     9
100
AcDbLine
 10
141.6482759817977
 20
74.4667528240075
 30
0.0
 11
200.4144485842984
 21
74.4667528240075
 31
0.0
  0
LINE
  5
C8
330
6F
100
AcDbEntity
  8
ADD_LINE
  6
DOT
 62
     9
100
AcDbLine
 10
141.6482759817977
 20
71.9667528240075
 30
0.0
 11
200.4144485842984
 21
71.9667528240075
 31
0.0
  0
LINE
  5
C9
330
6F
100
AcDbEntity
  8
ADD_LINE
  6
DOT
 62
     9
100
AcDbLine
 10
141.6482759817977
 20
69.4667528240075
 30
0.0
 11
200.4144485842984
 21
69.4667528240075
 31
0.0
  0
LINE
  5
CA
330
6F
100
AcDbEntity
  8
ADD_LINE
  6
DOT
 62
     9
100
AcDbLine
 10
141.6482759817977
 20
66.9667528240075
 30
0.0
 11
200.4144485842984
 21
66.9667528240075
 31
0.0
  0
LINE
  5
CB
330
6F
100
AcDbEntity
  8
ADD_LINE
  6
DOT
 62
     9
100
AcDbLine
 10
141.6482759817977
 20
64.4667528240075
 30
0.0
 11
200.4144485842984
 21
64.4667528240075
 31
0.0
  0
LINE
  5
CC
330
6F
100
AcDbEntity
  8
ADD_LINE
  6
DOT
 62
     9
100
AcDbLine
 10
141.6482759817977
 20
61.9667528240075
 30
0.0
 11
200.4144485842984
 21
61.9667528240075
 31
0.0
  0
LINE
  5
CD
330
6F
100
AcDbEntity
  8
ADD_LINE
  6
DOT
 62
     9
100
AcDbLine
 10
141.6482759817977
 20
59.4667528240075
 30
0.0
 11
200.4144485842984
 21
59.4667528240075
 31
0.0
  0
LINE
  5
CE
330
6F
100
AcDbEntity
  8
ADD_LINE
  6
DOT
 62
     9
100
AcDbLine
 10
141.6482759817977
 20
56.9667528240075
 30
0.0
 11
200.4144485842984
 21
56.9667528240075
 31
0.0
  0
LINE
  5
CF
330
6F
100
AcDbEntity
  8
ADD_LINE
  6
DOT
 62
     9
100
AcDbLine
 10
141.6482759817977
 20
54.4667528240075
 30
0.0
 11
200.4144485842984
 21
54.4667528240075
 31
0.0
  0
LINE
  5
D0
330
6F
100
AcDbEntity
  8
ADD_LINE
  6
DOT
 62
     9
100
AcDbLine
 10
141.6482759817977
 20
51.9667528240075
 30
0.0
 11
200.4144485842984
 21
51.9667528240075
 31
0.0
  0
LINE
  5
D1
330
6F
100
AcDbEntity
  8
ADD_LINE
  6
DOT
 62
     9
100
AcDbLine
 10
141.6482759817977
 20
49.4667528240075
 30
0.0
 11
200.4144485842984
 21
49.4667528240075
 31
0.0
  0
LINE
  5
D2
330
6F
100
AcDbEntity
  8
ADD_LINE
  6
DOT
 62
     9
100
AcDbLine
 10
141.6482759817977
 20
46.96675282400749
 30
0.0
 11
200.4144485842984
 21
46.96675282400749
 31
0.0
  0
LINE
  5
D3
330
6F
100
AcDbEntity
  8
ADD_LINE
  6
DOT
 62
     9
100
AcDbLine
 10
141.6482759817977
 20
44.46675282400749
 30
0.0
 11
200.4144485842984
 21
44.46675282400749
 31
0.0
  0
LINE
  5
D4
330
6F
100
AcDbEntity
  8
ADD_LINE
  6
DOT
 62
     9
100
AcDbLine
 10
141.6482759817977
 20
41.96675282400749
 30
0.0
 11
200.4144485842984
 21
41.96675282400749
 31
0.0
  0
LINE
  5
D5
330
6F
100
AcDbEntity
  8
ADD_LINE
  6
DOT
 62
     9
100
AcDbLine
 10
141.6482759817977
 20
39.4667528240075
 30
0.0
 11
200.4144485842984
 21
39.4667528240075
 31
0.0
  0
LINE
  5
D6
330
6F
100
AcDbEntity
  8
ADD_LINE
  6
DOT
 62
     9
100
AcDbLine
 10
141.6482759817977
 20
36.9667528240075
 30
0.0
 11
200.4144485842984
 21
36.9667528240075
 31
0.0
  0
LINE
  5
D7
330
6F
100
AcDbEntity
  8
ADD_LINE
  6
DOT
 62
     9
100
AcDbLine
 10
141.6482759817977
 20
34.4667528240075
 30
0.0
 11
200.4144485842984
 21
34.4667528240075
 31
0.0
  0
LINE
  5
D8
330
6F
100
AcDbEntity
  8
ADD_LINE
  6
DOT
 62
     9
100
AcDbLine
 10
141.6482759817977
 20
31.9667528240075
 30
0.0
 11
200.4144485842984
 21
31.9667528240075
 31
0.0
  0
LINE
  5
D9
330
6F
100
AcDbEntity
  8
ADD_LINE
  6
DOT
 62
     9
100
AcDbLine
 10
141.6482759817977
 20
29.4667528240075
 30
0.0
 11
200.4144485842984
 21
29.4667528240075
 31
0.0
  0
LINE
  5
DA
330
6F
100
AcDbEntity
  8
ADD_LINE
  6
DOT
 62
     9
100
AcDbLine
 10
141.6482759817977
 20
26.9667528240075
 30
0.0
 11
200.4144485842984
 21
26.9667528240075
 31
0.0
  0
LINE
  5
DB
330
6F
100
AcDbEntity
  8
ADD_LINE
  6
DOT
 62
     9
100
AcDbLine
 10
141.6482759817977
 20
24.4667528240075
 30
0.0
 11
200.4144485842984
 21
24.4667528240075
 31
0.0
  0
LINE
  5
DC
330
6F
100
AcDbEntity
  8
ADD_LINE
  6
DOT
 62
     9
100
AcDbLine
 10
141.6482759817977
 20
21.9667528240075
 30
0.0
 11
200.4144485842984
 21
21.9667528240075
 31
0.0
  0
LINE
  5
DD
330
6F
100
AcDbEntity
  8
ADD_LINE
  6
DOT
 62
     9
100
AcDbLine
 10
141.6482759817977
 20
19.4667528240075
 30
0.0
 11
200.4144485842984
 21
19.4667528240075
 31
0.0
  0
LINE
  5
DE
330
6F
100
AcDbEntity
  8
ADD_LINE
  6
DOT
 62
     9
100
AcDbLine
 10
144.02266679402
 20
81.12193674539645
 30
0.0
 11
144.02266679402
 21
11.67100548789568
 31
0.0
  0
LINE
  5
DF
330
6F
100
AcDbEntity
  8
_F-F_補助線
  6
Continuous
 62
     9
100
AcDbLine
 10
0.0
 20
297.0
 30
0.0
 11
0.0
 21
0.0
 31
0.0
  0
LINE
  5
E0
330
6F
100
AcDbEntity
  8
_F-F_補助線
  6
Continuous
 62
     9
100
AcDbLine
 10
0.0
 20
297.0
 30
0.0
 11
209.9999999999697
 21
297.0
 31
0.0
  0
LINE
  5
E1
330
6F
100
AcDbEntity
  8
_F-F_補助線
  6
Continuous
 62
     9
100
AcDbLine
 10
0.0
 20
0.0
 30
0.0
 11
209.9999999999697
 21
0.0
 31
0.0
  0
LINE
  5
E2
330
6F
100
AcDbEntity
  8
_F-0_F-0___
  6
Continuous
 62
     9
100
AcDbLine
 10
0.0
 20
297.0
 30
0.0
 11
209.9999999999697
 21
297.0
 31
0.0
  0
LINE
  5
E3
330
6F
100
AcDbEntity
  8
ADD_LINE
  6
DOT
 62
    18
100
AcDbLine
 10
0.0
 20
291.6964285714286
 30
0.0
 11
209.9999999999697
 21
291.6964285714286
 31
0.0
  0
LINE
  5
E4
330
6F
100
AcDbEntity
  8
ADD_LINE
  6
DOT
 62
     9
100
AcDbLine
 10
0.0
 20
286.3928571428571
 30
0.0
 11
209.9999999999697
 21
286.3928571428571
 31
0.0
  0
LINE
  5
E5
330
6F
100
AcDbEntity
  8
ADD_LINE
  6
DOT
 62
    18
100
AcDbLine
 10
209.9999999999697
 20
5.303571428571387
 30
0.0
 11
0.0
 21
5.303571428571387
 31
0.0
  0
LINE
  5
E6
330
6F
100
AcDbEntity
  8
ADD_LINE
  6
DOT
 62
     9
100
AcDbLine
 10
209.9999999999697
 20
10.60714285714283
 30
0.0
 11
0.0
 21
10.60714285714283
 31
0.0
  0
LINE
  5
E7
330
6F
100
AcDbEntity
  8
ADD_LINE
  6
DOT
 62
     9
100
AcDbLine
 10
0.0
 20
148.5
 30
0.0
 11
209.9999999999697
 21
148.5
 31
0.0
  0
LINE
  5
E8
330
6F
100
AcDbEntity
  8
ADD_LINE
  6
DOT
 62
     9
100
AcDbLine
 10
125.4606984553369
 20
232.0944096611726
 30
0.0
 11
118.0628881053202
 21
232.0944096611726
 31
0.0
  0
LINE
  5
E9
330
6F
100
AcDbEntity
  8
ADD_LINE
  6
DOT
 62
     9
100
AcDbLine
 10
118.0628881053202
 20
232.0944096611726
 30
0.0
 11
118.0628881053202
 21
216.1098551548866
 31
0.0
  0
LINE
  5
EA
330
6F
100
AcDbEntity
  8
ADD_LINE
  6
DOT
 62
     9
100
AcDbLine
 10
125.4606984553369
 20
216.1098551548866
 30
0.0
 11
125.4606984553369
 21
232.0944096611726
 31
0.0
  0
LINE
  5
EB
330
6F
100
AcDbEntity
  8
ADD_LINE
  6
DOT
 62
     9
100
AcDbLine
 10
118.0628881053202
 20
223.5076655068866
 30
0.0
 11
125.4606984553369
 21
223.5076655068866
 31
0.0
  0
LINE
  5
EC
330
6F
100
AcDbEntity
  8
ADD_LINE
  6
DOT
 62
     9
100
AcDbLine
 10
121.7617932803285
 20
223.5076655068866
 30
0.0
 11
118.0628881053202
 21
216.1098551548866
 31
0.0
  0
LINE
  5
ED
330
6F
100
AcDbEntity
  8
ADD_LINE
  6
DOT
 62
     9
100
AcDbLine
 10
121.7617932803285
 20
223.5076655068866
 30
0.0
 11
125.4606984553369
 21
216.1098551548866
 31
0.0
  0
LINE
  5
EE
330
6F
100
AcDbEntity
  8
ADD_LINE
  6
DOT
 62
     9
100
AcDbLine
 10
78.00763864437475
 20
232.0944096611726
 30
0.0
 11
70.60982829435812
 21
232.0944096611726
 31
0.0
  0
LINE
  5
EF
330
6F
100
AcDbEntity
  8
ADD_LINE
  6
DOT
 62
     9
100
AcDbLine
 10
70.60982829435812
 20
232.0944096611726
 30
0.0
 11
70.60982829435812
 21
216.1098551548866
 31
0.0
  0
LINE
  5
F0
330
6F
100
AcDbEntity
  8
ADD_LINE
  6
DOT
 62
     9
100
AcDbLine
 10
78.00763864437475
 20
216.1098551548866
 30
0.0
 11
78.00763864437475
 21
232.0944096611726
 31
0.0
  0
LINE
  5
F1
330
6F
100
AcDbEntity
  8
ADD_LINE
  6
DOT
 62
     9
100
AcDbLine
 10
70.60982829435812
 20
223.5076655068866
 30
0.0
 11
78.00763864437475
 21
223.5076655068866
 31
0.0
  0
LINE
  5
F2
330
6F
100
AcDbEntity
  8
ADD_LINE
  6
DOT
 62
     9
100
AcDbLine
 10
74.30873346936643
 20
223.5076655068866
 30
0.0
 11
70.60982829435812
 21
216.1098551548866
 31
0.0
  0
LINE
  5
F3
330
6F
100
AcDbEntity
  8
ADD_LINE
  6
DOT
 62
     9
100
AcDbLine
 10
74.30873346936643
 20
223.5076655068866
 30
0.0
 11
78.00763864437475
 21
216.1098551548866
 31
0.0
  0
LINE
  5
F4
330
6F
100
AcDbEntity
  8
ADD_LINE
  6
DOT
 62
     9
100
AcDbLine
 10
53.98545225449215
 20
104.6052693022425
 30
0.0
 11
59.08685944360616
 21
103.7152312701818
 31
0.0
  0
LINE
  5
F5
330
6F
100
AcDbEntity
  8
ADD_LINE
  6
DOT
 62
     9
100
AcDbLine
 10
59.08685944360616
 20
103.7152312701818
 30
0.0
 11
61.00997733430872
 21
114.737914660946
 31
0.0
  0
LINE
  5
F6
330
6F
100
AcDbEntity
  8
ADD_LINE
  6
DOT
 62
     9
100
AcDbLine
 10
55.90857014519472
 20
115.6279526930067
 30
0.0
 11
53.98545225449215
 21
104.6052693022425
 31
0.0
  0
LINE
  5
F7
330
6F
100
AcDbEntity
  8
ADD_LINE
  6
DOT
 62
     9
100
AcDbLine
 10
60.11993930200941
 20
109.6365074704643
 30
0.0
 11
55.0185321128954
 21
110.526545502525
 31
0.0
  0
LINE
  5
F8
330
6F
100
AcDbEntity
  8
ADD_LINE
  6
DOT
 62
     9
100
AcDbLine
 10
57.56923570745239
 20
110.0815264864947
 30
0.0
 11
61.00997733430872
 21
114.737914660946
 31
0.0
  0
LINE
  5
F9
330
6F
100
AcDbEntity
  8
ADD_LINE
  6
DOT
 62
     9
100
AcDbLine
 10
57.56923570745239
 20
110.0815264864947
 30
0.0
 11
55.90857014519472
 21
115.6279526930067
 31
0.0
  0
LINE
  5
FA
330
6F
100
AcDbEntity
  8
ADD_LINE
  6
DOT
 62
     9
100
AcDbLine
 10
71.67221765307587
 20
104.8416929264002
 30
0.0
 11
75.24320268545569
 21
104.2186663039577
 31
0.0
  0
LINE
  5
FB
330
6F
100
AcDbEntity
  8
ADD_LINE
  6
DOT
 62
     9
100
AcDbLine
 10
75.24320268545569
 20
104.2186663039577
 30
0.0
 11
76.58938520894749
 21
111.9345446774927
 31
0.0
  0
LINE
  5
FC
330
6F
100
AcDbEntity
  8
ADD_LINE
  6
DOT
 62
     9
100
AcDbLine
 10
73.01840017656771
 20
112.5575712999352
 30
0.0
 11
71.67221765307587
 21
104.8416929264002
 31
0.0
  0
LINE
  5
FD
330
6F
100
AcDbEntity
  8
ADD_LINE
  6
DOT
 62
     9
100
AcDbLine
 10
75.96635858633796
 20
108.3635596441555
 30
0.0
 11
72.39537355395815
 21
108.986586266598
 31
0.0
  0
LINE
  5
FE
330
6F
100
AcDbEntity
  8
ADD_LINE
  6
DOT
 62
     9
100
AcDbLine
 10
74.18086607014807
 20
108.6750729553767
 30
0.0
 11
76.58938520894749
 21
111.9345446774927
 31
0.0
  0
LINE
  5
FF
330
6F
100
AcDbEntity
  8
ADD_LINE
  6
DOT
 62
     9
100
AcDbLine
 10
74.18086607014807
 20
108.6750729553767
 30
0.0
 11
73.01840017656771
 21
112.5575712999352
 31
0.0
  0
INSERT
  5
100
330
6F
100
AcDbEntity
  8
_4-E_文字
100
AcDbBlockReference
  2
-000-レベル１
 10
115.3637352535299
 20
151.9905993456874
 30
0.0
  0
TEXT
  5
101
330
6F
100
AcDbEntity
  8
_4-4_見え掛り
 62
     3
100
AcDbText
 10
87.88046750018576
 20
238.4441324595846
 30
0.0
 40
2.5
  1
隣地境界線
 41
0.8
100
AcDbText
  0
TEXT
  5
102
330
6F
100
AcDbEntity
  8
_4-4_見え掛り
 62
     3
100
AcDbText
 10
42.46744326079272
 20
172.1057408463465
 30
0.0
 40
2.5
  1
隣地境界線
 50
90.0000000126308
 41
0.8
100
AcDbText
  0
TEXT
  5
103
330
6F
100
AcDbEntity
  8
_4-4_見え掛り
 62
     3
100
AcDbText
 10
159.0577240130779
 20
173.849893608216
 30
0.0
 40
2.5
  1
道路境界線
 50
96.8427734126309
 41
0.8
100
AcDbText
  0
TEXT
  5
104
330
6F
100
AcDbEntity
  8
_4-E_文字
 62
     3
100
AcDbText
 10
91.57717321997829
 20
177.2224698535356
 30
0.0
 40
2.5
  1
古民家
 41
0.8
100
AcDbText
  0
TEXT
  5
105
330
6F
100
AcDbEntity
  8
_4-E_文字
 62
     3
100
AcDbText
 10
165.1434358024045
 20
11.97706589283481
 30
0.0
 40
3.0
  1
配置図・
 41
0.8333333333333332
100
AcDbText
  0
TEXT
  5
106
330
6F
100
AcDbEntity
  8
_4-E_文字
 62
     3
100
AcDbText
 10
186.631706332987
 20
11.92418470535949
 30
0.0
 40
3.0
  1
S=1/200
 41
0.8333333333333332
100
AcDbText
  0
TEXT
  5
107
330
6F
100
AcDbEntity
  8
_4-4_見え掛り
 62
     3
100
AcDbText
 10
91.51581499293863
 20
101.6178294402783
 30
0.0
 40
2.5
  1
道路境界線
 50
4.997379820000006
 41
0.8
100
AcDbText
  0
TEXT
  5
108
330
6F
100
AcDbEntity
  8
_4-E_文字
 62
     3
100
AcDbText
 10
132.278174451525
 20
134.1028273951667
 30
0.0
 40
2.5
  1
緩く下がる
 50
318.8879095608331
 41
0.8
100
AcDbText
  0
TEXT
  5
109
330
6F
100
AcDbEntity
  8
_4-E_文字
 62
     3
100
AcDbText
 10
123.3148483464755
 20
97.45682677426993
 30
0.0
 40
2.5
  1
緩く下がる
 50
7.667538563627054
 41
0.8
100
AcDbText
  0
TEXT
  5
10A
330
6F
100
AcDbEntity
  8
_4-E_文字
 62
     3
100
AcDbText
 10
163.0131459425642
 20
194.095999978654
 30
0.0
 40
2.5
  1
緩く下がる
 50
276.8300846617386
 41
0.8
100
AcDbText
  0
TEXT
  5
10B
330
6F
100
AcDbEntity
  8
_4-E_文字
 62
     3
100
AcDbText
 10
145.3722002896721
 20
68.16991071624943
 30
0.0
 40
2.5
  1
1.0
 41
0.8
100
AcDbText
  0
TEXT
  5
10C
330
6F
100
AcDbEntity
  8
_4-E_文字
 62
     3
100
AcDbText
 10
144.52266679402
 20
72.4667528240075
 30
0.0
 40
2.5
  1
敷地面積：587.958ｍ52
 41
0.8
100
AcDbText
  0
TEXT
  5
10D
330
6F
100
AcDbEntity
  8
_4-E_文字
 62
     3
100
AcDbText
 10
154.4731526683455
 20
68.37140781688427
 30
0.0
 40
2.5
  1
基準GL±0からのレベル(m)
 41
0.8
100
AcDbText
  0
TEXT
  5
10E
330
6F
100
AcDbEntity
  8
_4-E_文字
 62
     3
100
AcDbText
 10
99.13848233130922
 20
205.2256987003964
 30
0.0
 40
2.5
  1
既存屋根：下屋ともに成型鋼板葺き
 41
0.8
100
AcDbText
  0
LINE
  5
10F
330
6F
100
AcDbEntity
  8
_4-0_通り心
  6
CENTER2
 62
    83
100
AcDbLine
 10
51.67778915377096
 20
192.2727272727272
 30
0.0
 11
127.5438439828392
 21
192.2727272727272
 31
0.0
  0
LINE
  5
110
330
6F
100
AcDbEntity
  8
_4-0_通り心
  6
CENTER2
 62
    83
100
AcDbLine
 10
87.82778915377093
 20
202.3432432050408
 30
0.0
 11
87.82778915377093
 21
145.031683413881
 31
0.0
  0
LINE
  5
111
330
6F
100
AcDbEntity
  8
_4-0_通り心
  6
CENTER2
 62
    83
100
AcDbLine
 10
59.17778915377096
 20
202.3432432050408
 30
0.0
 11
59.17778915377096
 21
145.031683413881
 31
0.0
  0
LINE
  5
112
330
6F
100
AcDbEntity
  8
_4-0_通り心
  6
CENTER2
 62
    83
100
AcDbLine
 10
116.4777891537709
 20
202.3432432050408
 30
0.0
 11
116.4777891537709
 21
145.031683413881
 31
0.0
  0
LINE
  5
113
330
6F
100
AcDbEntity
  8
_4-0_通り心
  6
CENTER2
 62
    83
100
AcDbLine
 10
51.67778915377096
 20
154.0727272727272
 30
0.0
 11
127.5438439828392
 21
154.0727272727272
 31
0.0
  0
LINE
  5
114
330
6F
100
AcDbEntity
  8
_4-0_通り心
  6
CENTER2
 62
    83
100
AcDbLine
 10
127.5438439828392
 20
173.1727272727272
 30
0.0
 11
47.21177190752661
 21
173.1727272727272
 31
0.0
  0
LINE
  5
115
330
6F
100
AcDbEntity
  8
_4-C_ハッチ
  6
Continuous
 62
    83
100
AcDbLine
 10
120.504064496565
 20
150.4000053205264
 30
0.0
 11
120.977789153771
 21
150.4000053205264
 31
0.0
  0
LINE
  5
116
330
6F
100
AcDbEntity
  8
_4-C_ハッチ
  6
Continuous
 62
    83
100
AcDbLine
 10
119.754064496565
 20
151.1500053205264
 30
0.0
 11
120.977789153771
 21
151.1500053205264
 31
0.0
  0
LINE
  5
117
330
6F
100
AcDbEntity
  8
_4-C_ハッチ
  6
Continuous
 62
    83
100
AcDbLine
 10
119.004064496565
 20
151.9000053205264
 30
0.0
 11
120.977789153771
 21
151.9000053205264
 31
0.0
  0
LINE
  5
118
330
6F
100
AcDbEntity
  8
_4-C_ハッチ
  6
Continuous
 62
    83
100
AcDbLine
 10
118.254064496565
 20
152.6500053205264
 30
0.0
 11
120.977789153771
 21
152.6500053205264
 31
0.0
  0
LINE
  5
119
330
6F
100
AcDbEntity
  8
_4-C_ハッチ
  6
Continuous
 62
    83
100
AcDbLine
 10
117.504064496565
 20
153.4000053205264
 30
0.0
 11
120.977789153771
 21
153.4000053205264
 31
0.0
  0
LINE
  5
11A
330
6F
100
AcDbEntity
  8
_4-C_ハッチ
  6
Continuous
 62
    83
100
AcDbLine
 10
116.754064496565
 20
154.1500053205264
 30
0.0
 11
120.977789153771
 21
154.1500053205264
 31
0.0
  0
LINE
  5
11B
330
6F
100
AcDbEntity
  8
_4-C_ハッチ
  6
Continuous
 62
    83
100
AcDbLine
 10
116.004064496565
 20
154.9000053205264
 30
0.0
 11
120.977789153771
 21
154.9000053205264
 31
0.0
  0
LINE
  5
11C
330
6F
100
AcDbEntity
  8
_4-C_ハッチ
  6
Continuous
 62
    83
100
AcDbLine
 10
115.254064496565
 20
155.6500053205264
 30
0.0
 11
120.977789153771
 21
155.6500053205264
 31
0.0
  0
LINE
  5
11D
330
6F
100
AcDbEntity
  8
_4-C_ハッチ
  6
Continuous
 62
    83
100
AcDbLine
 10
115.4586205921634
 20
190.9000053205264
 30
0.0
 11
120.977789153771
 21
190.9000053205264
 31
0.0
  0
LINE
  5
11E
330
6F
100
AcDbEntity
  8
_4-C_ハッチ
  6
Continuous
 62
    83
100
AcDbLine
 10
116.2086205921634
 20
191.6500053205264
 30
0.0
 11
120.977789153771
 21
191.6500053205264
 31
0.0
  0
LINE
  5
11F
330
6F
100
AcDbEntity
  8
_4-C_ハッチ
  6
Continuous
 62
    83
100
AcDbLine
 10
116.9586205921634
 20
192.4000053205264
 30
0.0
 11
120.977789153771
 21
192.4000053205264
 31
0.0
  0
LINE
  5
120
330
6F
100
AcDbEntity
  8
_4-C_ハッチ
  6
Continuous
 62
    83
100
AcDbLine
 10
117.7086205921634
 20
193.1500053205264
 30
0.0
 11
120.977789153771
 21
193.1500053205264
 31
0.0
  0
LINE
  5
121
330
6F
100
AcDbEntity
  8
_4-C_ハッチ
  6
Continuous
 62
    83
100
AcDbLine
 10
118.4586205921634
 20
193.9000053205264
 30
0.0
 11
120.977789153771
 21
193.9000053205264
 31
0.0
  0
LINE
  5
122
330
6F
100
AcDbEntity
  8
_4-C_ハッチ
  6
Continuous
 62
    83
100
AcDbLine
 10
119.2086205921634
 20
194.6500053205264
 30
0.0
 11
120.977789153771
 21
194.6500053205264
 31
0.0
  0
LINE
  5
123
330
6F
100
AcDbEntity
  8
_4-C_ハッチ
  6
Continuous
 62
    83
100
AcDbLine
 10
119.9586205921634
 20
195.4000053205264
 30
0.0
 11
120.977789153771
 21
195.4000053205264
 31
0.0
  0
LINE
  5
124
330
6F
100
AcDbEntity
  8
_4-C_ハッチ
  6
Continuous
 62
    83
100
AcDbLine
 10
120.7086205921634
 20
196.1500053205264
 30
0.0
 11
120.977789153771
 21
196.1500053205264
 31
0.0
  0
LINE
  5
125
330
6F
100
AcDbEntity
  8
_4-C_ハッチ
  6
Continuous
 62
    83
100
AcDbLine
 10
120.4338338636723
 20
196.5823253732219
 30
0.0
 11
120.4338338636723
 21
196.7727272727272
 31
0.0
  0
LINE
  5
126
330
6F
100
AcDbEntity
  8
_4-C_ハッチ
  6
Continuous
 62
    83
100
AcDbLine
 10
119.6838338636723
 20
195.8323253732219
 30
0.0
 11
119.6838338636723
 21
196.7727272727272
 31
0.0
  0
LINE
  5
127
330
6F
100
AcDbEntity
  8
_4-C_ハッチ
  6
Continuous
 62
    83
100
AcDbLine
 10
118.9338338636723
 20
195.0823253732219
 30
0.0
 11
118.9338338636723
 21
196.7727272727272
 31
0.0
  0
LINE
  5
128
330
6F
100
AcDbEntity
  8
_4-C_ハッチ
  6
Continuous
 62
    83
100
AcDbLine
 10
118.1838338636723
 20
194.3323253732219
 30
0.0
 11
118.1838338636723
 21
196.7727272727272
 31
0.0
  0
LINE
  5
129
330
6F
100
AcDbEntity
  8
_4-C_ハッチ
  6
Continuous
 62
    83
100
AcDbLine
 10
117.4338338636723
 20
193.5823253732219
 30
0.0
 11
117.4338338636723
 21
196.7727272727272
 31
0.0
  0
LINE
  5
12A
330
6F
100
AcDbEntity
  8
_4-C_ハッチ
  6
Continuous
 62
    83
100
AcDbLine
 10
116.6838338636723
 20
192.8323253732219
 30
0.0
 11
116.6838338636723
 21
196.7727272727272
 31
0.0
  0
LINE
  5
12B
330
6F
100
AcDbEntity
  8
_4-C_ハッチ
  6
Continuous
 62
    83
100
AcDbLine
 10
115.9338338636723
 20
192.0823253732219
 30
0.0
 11
115.9338338636723
 21
196.7727272727272
 31
0.0
  0
LINE
  5
12C
330
6F
100
AcDbEntity
  8
_4-C_ハッチ
  6
Continuous
 62
    83
100
AcDbLine
 10
115.1838338636723
 20
191.3323253732219
 30
0.0
 11
115.1838338636723
 21
196.7727272727272
 31
0.0
  0
LINE
  5
12D
330
6F
100
AcDbEntity
  8
_4-C_ハッチ
  6
Continuous
 62
    83
100
AcDbLine
 10
60.43383386367236
 20
191.3702359534191
 30
0.0
 11
60.43383386367236
 21
196.7727272727272
 31
0.0
  0
LINE
  5
12E
330
6F
100
AcDbEntity
  8
_4-C_ハッチ
  6
Continuous
 62
    83
100
AcDbLine
 10
59.68383386367236
 20
192.1202359534191
 30
0.0
 11
59.68383386367236
 21
196.7727272727272
 31
0.0
  0
LINE
  5
12F
330
6F
100
AcDbEntity
  8
_4-C_ハッチ
  6
Continuous
 62
    83
100
AcDbLine
 10
58.93383386367236
 20
192.8702359534192
 30
0.0
 11
58.93383386367236
 21
196.7727272727272
 31
0.0
  0
LINE
  5
130
330
6F
100
AcDbEntity
  8
_4-C_ハッチ
  6
Continuous
 62
    83
100
AcDbLine
 10
58.18383386367236
 20
193.6202359534192
 30
0.0
 11
58.18383386367236
 21
196.7727272727272
 31
0.0
  0
LINE
  5
131
330
6F
100
AcDbEntity
  8
_4-C_ハッチ
  6
Continuous
 62
    83
100
AcDbLine
 10
57.43383386367236
 20
194.3702359534191
 30
0.0
 11
57.43383386367236
 21
196.7727272727272
 31
0.0
  0
LINE
  5
132
330
6F
100
AcDbEntity
  8
_4-C_ハッチ
  6
Continuous
 62
    83
100
AcDbLine
 10
56.68383386367236
 20
195.1202359534192
 30
0.0
 11
56.68383386367236
 21
196.7727272727272
 31
0.0
  0
LINE
  5
133
330
6F
100
AcDbEntity
  8
_4-C_ハッチ
  6
Continuous
 62
    83
100
AcDbLine
 10
55.93383386367236
 20
195.8702359534192
 30
0.0
 11
55.93383386367236
 21
196.7727272727272
 31
0.0
  0
LINE
  5
134
330
6F
100
AcDbEntity
  8
_4-C_ハッチ
  6
Continuous
 62
    83
100
AcDbLine
 10
55.18383386367236
 20
196.6202359534192
 30
0.0
 11
55.18383386367236
 21
196.7727272727272
 31
0.0
  0
LINE
  5
135
330
6F
100
AcDbEntity
  8
_4-C_ハッチ
  6
Continuous
 62
    83
100
AcDbLine
 10
55.15151381097689
 20
195.9454492249281
 30
0.0
 11
54.67778915377095
 21
195.9454492249281
 31
0.0
  0
LINE
  5
136
330
6F
100
AcDbEntity
  8
_4-C_ハッチ
  6
Continuous
 62
    83
100
AcDbLine
 10
55.90151381097689
 20
195.1954492249281
 30
0.0
 11
54.67778915377095
 21
195.1954492249281
 31
0.0
  0
LINE
  5
137
330
6F
100
AcDbEntity
  8
_4-C_ハッチ
  6
Continuous
 62
    83
100
AcDbLine
 10
56.6515138109769
 20
194.4454492249281
 30
0.0
 11
54.67778915377095
 21
194.4454492249281
 31
0.0
  0
LINE
  5
138
330
6F
100
AcDbEntity
  8
_4-C_ハッチ
  6
Continuous
 62
    83
100
AcDbLine
 10
57.40151381097689
 20
193.6954492249281
 30
0.0
 11
54.67778915377095
 21
193.6954492249281
 31
0.0
  0
LINE
  5
139
330
6F
100
AcDbEntity
  8
_4-C_ハッチ
  6
Continuous
 62
    83
100
AcDbLine
 10
58.15151381097689
 20
192.9454492249281
 30
0.0
 11
54.67778915377095
 21
192.9454492249281
 31
0.0
  0
LINE
  5
13A
330
6F
100
AcDbEntity
  8
_4-C_ハッチ
  6
Continuous
 62
    83
100
AcDbLine
 10
58.90151381097689
 20
192.1954492249281
 30
0.0
 11
54.67778915377095
 21
192.1954492249281
 31
0.0
  0
LINE
  5
13B
330
6F
100
AcDbEntity
  8
_4-C_ハッチ
  6
Continuous
 62
    83
100
AcDbLine
 10
59.65151381097689
 20
191.4454492249281
 30
0.0
 11
54.67778915377095
 21
191.4454492249281
 31
0.0
  0
LINE
  5
13C
330
6F
100
AcDbEntity
  8
_4-C_ハッチ
  6
Continuous
 62
    83
100
AcDbLine
 10
60.19695771537852
 20
155.4454492249281
 30
0.0
 11
54.67778915377093
 21
155.4454492249281
 31
0.0
  0
LINE
  5
13D
330
6F
100
AcDbEntity
  8
_4-C_ハッチ
  6
Continuous
 62
    83
100
AcDbLine
 10
59.44695771537852
 20
154.6954492249281
 30
0.0
 11
54.67778915377093
 21
154.6954492249281
 31
0.0
  0
LINE
  5
13E
330
6F
100
AcDbEntity
  8
_4-C_ハッチ
  6
Continuous
 62
    83
100
AcDbLine
 10
58.69695771537852
 20
153.9454492249281
 30
0.0
 11
54.67778915377093
 21
153.9454492249281
 31
0.0
  0
LINE
  5
13F
330
6F
100
AcDbEntity
  8
_4-C_ハッチ
  6
Continuous
 62
    83
100
AcDbLine
 10
57.94695771537853
 20
153.1954492249281
 30
0.0
 11
54.67778915377093
 21
153.1954492249281
 31
0.0
  0
LINE
  5
140
330
6F
100
AcDbEntity
  8
_4-C_ハッチ
  6
Continuous
 62
    83
100
AcDbLine
 10
57.19695771537852
 20
152.4454492249281
 30
0.0
 11
54.67778915377093
 21
152.4454492249281
 31
0.0
  0
LINE
  5
141
330
6F
100
AcDbEntity
  8
_4-C_ハッチ
  6
Continuous
 62
    83
100
AcDbLine
 10
56.44695771537852
 20
151.6954492249281
 30
0.0
 11
54.67778915377093
 21
151.6954492249281
 31
0.0
  0
LINE
  5
142
330
6F
100
AcDbEntity
  8
_4-C_ハッチ
  6
Continuous
 62
    83
100
AcDbLine
 10
55.69695771537852
 20
150.945449224928
 30
0.0
 11
54.67778915377093
 21
150.945449224928
 31
0.0
  0
LINE
  5
143
330
6F
100
AcDbEntity
  8
_4-C_ハッチ
  6
Continuous
 62
    83
100
AcDbLine
 10
54.94695771537852
 20
150.195449224928
 30
0.0
 11
54.67778915377093
 21
150.195449224928
 31
0.0
  0
LINE
  5
144
330
6F
100
AcDbEntity
  8
_4-C_ハッチ
  6
Continuous
 62
    83
100
AcDbLine
 10
55.2217444438696
 20
149.7631291722326
 30
0.0
 11
55.2217444438696
 21
149.5727272727272
 31
0.0
  0
LINE
  5
145
330
6F
100
AcDbEntity
  8
_4-C_ハッチ
  6
Continuous
 62
    83
100
AcDbLine
 10
55.9717444438696
 20
150.5131291722326
 30
0.0
 11
55.9717444438696
 21
149.5727272727272
 31
0.0
  0
LINE
  5
146
330
6F
100
AcDbEntity
  8
_4-C_ハッチ
  6
Continuous
 62
    83
100
AcDbLine
 10
56.72174444386961
 20
151.2631291722326
 30
0.0
 11
56.72174444386961
 21
149.5727272727272
 31
0.0
  0
LINE
  5
147
330
6F
100
AcDbEntity
  8
_4-C_ハッチ
  6
Continuous
 62
    83
100
AcDbLine
 10
57.4717444438696
 20
152.0131291722326
 30
0.0
 11
57.4717444438696
 21
149.5727272727272
 31
0.0
  0
LINE
  5
148
330
6F
100
AcDbEntity
  8
_4-C_ハッチ
  6
Continuous
 62
    83
100
AcDbLine
 10
58.2217444438696
 20
152.7631291722326
 30
0.0
 11
58.2217444438696
 21
149.5727272727272
 31
0.0
  0
LINE
  5
149
330
6F
100
AcDbEntity
  8
_4-C_ハッチ
  6
Continuous
 62
    83
100
AcDbLine
 10
58.9717444438696
 20
153.5131291722326
 30
0.0
 11
58.9717444438696
 21
149.5727272727272
 31
0.0
  0
LINE
  5
14A
330
6F
100
AcDbEntity
  8
_4-C_ハッチ
  6
Continuous
 62
    83
100
AcDbLine
 10
59.7217444438696
 20
154.2631291722326
 30
0.0
 11
59.7217444438696
 21
149.5727272727272
 31
0.0
  0
LINE
  5
14B
330
6F
100
AcDbEntity
  8
_4-C_ハッチ
  6
Continuous
 62
    83
100
AcDbLine
 10
60.47174444386961
 20
155.0131291722326
 30
0.0
 11
60.47174444386961
 21
149.5727272727272
 31
0.0
  0
LINE
  5
14C
330
6F
100
AcDbEntity
  8
_4-C_ハッチ
  6
Continuous
 62
    83
100
AcDbLine
 10
115.2217444438696
 20
154.9752185920353
 30
0.0
 11
115.2217444438696
 21
149.5727272727272
 31
0.0
  0
LINE
  5
14D
330
6F
100
AcDbEntity
  8
_4-C_ハッチ
  6
Continuous
 62
    83
100
AcDbLine
 10
115.9717444438696
 20
154.2252185920353
 30
0.0
 11
115.9717444438696
 21
149.5727272727272
 31
0.0
  0
LINE
  5
14E
330
6F
100
AcDbEntity
  8
_4-C_ハッチ
  6
Continuous
 62
    83
100
AcDbLine
 10
116.7217444438696
 20
153.4752185920353
 30
0.0
 11
116.7217444438696
 21
149.5727272727272
 31
0.0
  0
LINE
  5
14F
330
6F
100
AcDbEntity
  8
_4-C_ハッチ
  6
Continuous
 62
    83
100
AcDbLine
 10
117.4717444438696
 20
152.7252185920353
 30
0.0
 11
117.4717444438696
 21
149.5727272727272
 31
0.0
  0
LINE
  5
150
330
6F
100
AcDbEntity
  8
_4-C_ハッチ
  6
Continuous
 62
    83
100
AcDbLine
 10
118.2217444438696
 20
151.9752185920353
 30
0.0
 11
118.2217444438696
 21
149.5727272727272
 31
0.0
  0
LINE
  5
151
330
6F
100
AcDbEntity
  8
_4-C_ハッチ
  6
Continuous
 62
    83
100
AcDbLine
 10
118.9717444438696
 20
151.2252185920353
 30
0.0
 11
118.9717444438696
 21
149.5727272727272
 31
0.0
  0
LINE
  5
152
330
6F
100
AcDbEntity
  8
_4-C_ハッチ
  6
Continuous
 62
    83
100
AcDbLine
 10
119.7217444438696
 20
150.4752185920353
 30
0.0
 11
119.7217444438696
 21
149.5727272727272
 31
0.0
  0
LINE
  5
153
330
6F
100
AcDbEntity
  8
_4-C_ハッチ
  6
Continuous
 62
    83
100
AcDbLine
 10
120.4717444438696
 20
149.7252185920353
 30
0.0
 11
120.4717444438696
 21
149.5727272727272
 31
0.0
  0
LINE
  5
154
330
6F
100
AcDbEntity
  8
_4-C_ハッチ
  6
Continuous
 62
    83
100
AcDbLine
 10
67.93383386367236
 20
190.8367921888739
 30
0.0
 11
67.93383386367236
 21
196.7727272727272
 31
0.0
  0
LINE
  5
155
330
6F
100
AcDbEntity
  8
_4-C_ハッチ
  6
Continuous
 62
    83
100
AcDbLine
 10
67.18383386367236
 20
190.8367921888739
 30
0.0
 11
67.18383386367236
 21
196.7727272727272
 31
0.0
  0
LINE
  5
156
330
6F
100
AcDbEntity
  8
_4-C_ハッチ
  6
Continuous
 62
    83
100
AcDbLine
 10
66.43383386367236
 20
190.8367921888739
 30
0.0
 11
66.43383386367236
 21
196.7727272727272
 31
0.0
  0
LINE
  5
157
330
6F
100
AcDbEntity
  8
_4-C_ハッチ
  6
Continuous
 62
    83
100
AcDbLine
 10
65.68383386367236
 20
190.8367921888739
 30
0.0
 11
65.68383386367236
 21
196.7727272727272
 31
0.0
  0
LINE
  5
158
330
6F
100
AcDbEntity
  8
_4-C_ハッチ
  6
Continuous
 62
    83
100
AcDbLine
 10
64.93383386367236
 20
190.8367921888739
 30
0.0
 11
64.93383386367236
 21
196.7727272727272
 31
0.0
  0
LINE
  5
159
330
6F
100
AcDbEntity
  8
_4-C_ハッチ
  6
Continuous
 62
    83
100
AcDbLine
 10
64.18383386367236
 20
190.8367921888739
 30
0.0
 11
64.18383386367236
 21
196.7727272727272
 31
0.0
  0
LINE
  5
15A
330
6F
100
AcDbEntity
  8
_4-C_ハッチ
  6
Continuous
 62
    83
100
AcDbLine
 10
63.43383386367236
 20
190.8367921888739
 30
0.0
 11
63.43383386367236
 21
196.7727272727272
 31
0.0
  0
LINE
  5
15B
330
6F
100
AcDbEntity
  8
_4-C_ハッチ
  6
Continuous
 62
    83
100
AcDbLine
 10
62.68383386367236
 20
190.8367921888739
 30
0.0
 11
62.68383386367236
 21
196.7727272727272
 31
0.0
  0
LINE
  5
15C
330
6F
100
AcDbEntity
  8
_4-C_ハッチ
  6
Continuous
 62
    83
100
AcDbLine
 10
61.93383386367236
 20
190.8367921888739
 30
0.0
 11
61.93383386367236
 21
196.7727272727272
 31
0.0
  0
LINE
  5
15D
330
6F
100
AcDbEntity
  8
_4-C_ハッチ
  6
Continuous
 62
    83
100
AcDbLine
 10
61.18383386367236
 20
190.8367921888739
 30
0.0
 11
61.18383386367236
 21
196.7727272727272
 31
0.0
  0
LINE
  5
15E
330
6F
100
AcDbEntity
  8
_4-C_ハッチ
  6
Continuous
 62
    83
100
AcDbLine
 10
60.06337885612635
 20
190.6954492249281
 30
0.0
 11
54.67778915377095
 21
190.6954492249281
 31
0.0
  0
LINE
  5
15F
330
6F
100
AcDbEntity
  8
_4-C_ハッチ
  6
Continuous
 62
    83
100
AcDbLine
 10
60.06337885612635
 20
189.9454492249281
 30
0.0
 11
54.67778915377095
 21
189.9454492249281
 31
0.0
  0
LINE
  5
160
330
6F
100
AcDbEntity
  8
_4-C_ハッチ
  6
Continuous
 62
    83
100
AcDbLine
 10
60.06337885612635
 20
189.1954492249281
 30
0.0
 11
54.67778915377095
 21
189.1954492249281
 31
0.0
  0
LINE
  5
161
330
6F
100
AcDbEntity
  8
_4-C_ハッチ
  6
Continuous
 62
    83
100
AcDbLine
 10
60.06337885612635
 20
188.4454492249281
 30
0.0
 11
54.67778915377095
 21
188.4454492249281
 31
0.0
  0
LINE
  5
162
330
6F
100
AcDbEntity
  8
_4-C_ハッチ
  6
Continuous
 62
    83
100
AcDbLine
 10
60.06337885612635
 20
187.6954492249281
 30
0.0
 11
54.67778915377095
 21
187.6954492249281
 31
0.0
  0
LINE
  5
163
330
6F
100
AcDbEntity
  8
_4-C_ハッチ
  6
Continuous
 62
    83
100
AcDbLine
 10
60.06337885612635
 20
186.9454492249281
 30
0.0
 11
54.67778915377095
 21
186.9454492249281
 31
0.0
  0
LINE
  5
164
330
6F
100
AcDbEntity
  8
_4-C_ハッチ
  6
Continuous
 62
    83
100
AcDbLine
 10
68.68383386367236
 20
190.8477272727272
 30
0.0
 11
68.68383386367236
 21
196.7727272727272
 31
0.0
  0
LINE
  5
165
330
6F
100
AcDbEntity
  8
_4-C_ハッチ
  6
Continuous
 62
    83
100
AcDbLine
 10
114.4338338636723
 20
190.8477272727272
 30
0.0
 11
114.4338338636723
 21
196.7727272727272
 31
0.0
  0
LINE
  5
166
330
6F
100
AcDbEntity
  8
_4-C_ハッチ
  6
Continuous
 62
    83
100
AcDbLine
 10
113.6838338636723
 20
190.8477272727272
 30
0.0
 11
113.6838338636723
 21
196.7727272727272
 31
0.0
  0
LINE
  5
167
330
6F
100
AcDbEntity
  8
_4-C_ハッチ
  6
Continuous
 62
    83
100
AcDbLine
 10
112.9338338636723
 20
190.8477272727272
 30
0.0
 11
112.9338338636723
 21
196.7727272727272
 31
0.0
  0
LINE
  5
168
330
6F
100
AcDbEntity
  8
_4-C_ハッチ
  6
Continuous
 62
    83
100
AcDbLine
 10
112.1838338636723
 20
190.8477272727272
 30
0.0
 11
112.1838338636723
 21
196.7727272727272
 31
0.0
  0
LINE
  5
169
330
6F
100
AcDbEntity
  8
_4-C_ハッチ
  6
Continuous
 62
    83
100
AcDbLine
 10
111.4338338636723
 20
190.8477272727272
 30
0.0
 11
111.4338338636723
 21
196.7727272727272
 31
0.0
  0
LINE
  5
16A
330
6F
100
AcDbEntity
  8
_4-C_ハッチ
  6
Continuous
 62
    83
100
AcDbLine
 10
110.6838338636723
 20
190.8477272727272
 30
0.0
 11
110.6838338636723
 21
196.7727272727272
 31
0.0
  0
LINE
  5
16B
330
6F
100
AcDbEntity
  8
_4-C_ハッチ
  6
Continuous
 62
    83
100
AcDbLine
 10
109.9338338636723
 20
190.8477272727272
 30
0.0
 11
109.9338338636723
 21
196.7727272727272
 31
0.0
  0
LINE
  5
16C
330
6F
100
AcDbEntity
  8
_4-C_ハッチ
  6
Continuous
 62
    83
100
AcDbLine
 10
109.1838338636723
 20
190.8477272727272
 30
0.0
 11
109.1838338636723
 21
196.7727272727272
 31
0.0
  0
LINE
  5
16D
330
6F
100
AcDbEntity
  8
_4-C_ハッチ
  6
Continuous
 62
    83
100
AcDbLine
 10
108.4338338636723
 20
190.8477272727272
 30
0.0
 11
108.4338338636723
 21
196.7727272727272
 31
0.0
  0
LINE
  5
16E
330
6F
100
AcDbEntity
  8
_4-C_ハッチ
  6
Continuous
 62
    83
100
AcDbLine
 10
107.6838338636723
 20
190.8477272727272
 30
0.0
 11
107.6838338636723
 21
196.7727272727272
 31
0.0
  0
LINE
  5
16F
330
6F
100
AcDbEntity
  8
_4-C_ハッチ
  6
Continuous
 62
    83
100
AcDbLine
 10
106.9338338636723
 20
190.8477272727272
 30
0.0
 11
106.9338338636723
 21
196.7727272727272
 31
0.0
  0
LINE
  5
170
330
6F
100
AcDbEntity
  8
_4-C_ハッチ
  6
Continuous
 62
    83
100
AcDbLine
 10
106.1838338636723
 20
190.8477272727272
 30
0.0
 11
106.1838338636723
 21
196.7727272727272
 31
0.0
  0
LINE
  5
171
330
6F
100
AcDbEntity
  8
_4-C_ハッチ
  6
Continuous
 62
    83
100
AcDbLine
 10
105.4338338636723
 20
190.8477272727272
 30
0.0
 11
105.4338338636723
 21
196.7727272727272
 31
0.0
  0
LINE
  5
172
330
6F
100
AcDbEntity
  8
_4-C_ハッチ
  6
Continuous
 62
    83
100
AcDbLine
 10
104.6838338636723
 20
190.8477272727272
 30
0.0
 11
104.6838338636723
 21
196.7727272727272
 31
0.0
  0
LINE
  5
173
330
6F
100
AcDbEntity
  8
_4-C_ハッチ
  6
Continuous
 62
    83
100
AcDbLine
 10
103.9338338636723
 20
190.8477272727272
 30
0.0
 11
103.9338338636723
 21
196.7727272727272
 31
0.0
  0
LINE
  5
174
330
6F
100
AcDbEntity
  8
_4-C_ハッチ
  6
Continuous
 62
    83
100
AcDbLine
 10
103.1838338636723
 20
190.8477272727272
 30
0.0
 11
103.1838338636723
 21
196.7727272727272
 31
0.0
  0
LINE
  5
175
330
6F
100
AcDbEntity
  8
_4-C_ハッチ
  6
Continuous
 62
    83
100
AcDbLine
 10
102.4338338636723
 20
190.8477272727272
 30
0.0
 11
102.4338338636723
 21
196.7727272727272
 31
0.0
  0
LINE
  5
176
330
6F
100
AcDbEntity
  8
_4-C_ハッチ
  6
Continuous
 62
    83
100
AcDbLine
 10
101.6838338636723
 20
190.8477272727272
 30
0.0
 11
101.6838338636723
 21
196.7727272727272
 31
0.0
  0
LINE
  5
177
330
6F
100
AcDbEntity
  8
_4-C_ハッチ
  6
Continuous
 62
    83
100
AcDbLine
 10
100.9338338636723
 20
190.8477272727272
 30
0.0
 11
100.9338338636723
 21
196.7727272727272
 31
0.0
  0
LINE
  5
178
330
6F
100
AcDbEntity
  8
_4-C_ハッチ
  6
Continuous
 62
    83
100
AcDbLine
 10
100.1838338636723
 20
190.8477272727272
 30
0.0
 11
100.1838338636723
 21
196.7727272727272
 31
0.0
  0
LINE
  5
179
330
6F
100
AcDbEntity
  8
_4-C_ハッチ
  6
Continuous
 62
    83
100
AcDbLine
 10
99.43383386367235
 20
190.8477272727272
 30
0.0
 11
99.43383386367235
 21
196.7727272727272
 31
0.0
  0
LINE
  5
17A
330
6F
100
AcDbEntity
  8
_4-C_ハッチ
  6
Continuous
 62
    83
100
AcDbLine
 10
98.68383386367234
 20
190.8477272727272
 30
0.0
 11
98.68383386367234
 21
196.7727272727272
 31
0.0
  0
LINE
  5
17B
330
6F
100
AcDbEntity
  8
_4-C_ハッチ
  6
Continuous
 62
    83
100
AcDbLine
 10
97.93383386367235
 20
190.8477272727272
 30
0.0
 11
97.93383386367235
 21
196.7727272727272
 31
0.0
  0
LINE
  5
17C
330
6F
100
AcDbEntity
  8
_4-C_ハッチ
  6
Continuous
 62
    83
100
AcDbLine
 10
97.18383386367236
 20
190.8477272727272
 30
0.0
 11
97.18383386367236
 21
196.7727272727272
 31
0.0
  0
LINE
  5
17D
330
6F
100
AcDbEntity
  8
_4-C_ハッチ
  6
Continuous
 62
    83
100
AcDbLine
 10
96.43383386367235
 20
190.8477272727272
 30
0.0
 11
96.43383386367235
 21
196.7727272727272
 31
0.0
  0
LINE
  5
17E
330
6F
100
AcDbEntity
  8
_4-C_ハッチ
  6
Continuous
 62
    83
100
AcDbLine
 10
95.68383386367235
 20
190.8477272727272
 30
0.0
 11
95.68383386367235
 21
196.7727272727272
 31
0.0
  0
LINE
  5
17F
330
6F
100
AcDbEntity
  8
_4-C_ハッチ
  6
Continuous
 62
    83
100
AcDbLine
 10
94.93383386367234
 20
190.8477272727272
 30
0.0
 11
94.93383386367234
 21
196.7727272727272
 31
0.0
  0
LINE
  5
180
330
6F
100
AcDbEntity
  8
_4-C_ハッチ
  6
Continuous
 62
    83
100
AcDbLine
 10
94.18383386367235
 20
190.8477272727272
 30
0.0
 11
94.18383386367235
 21
196.7727272727272
 31
0.0
  0
LINE
  5
181
330
6F
100
AcDbEntity
  8
_4-C_ハッチ
  6
Continuous
 62
    83
100
AcDbLine
 10
93.43383386367234
 20
190.8477272727272
 30
0.0
 11
93.43383386367234
 21
196.7727272727272
 31
0.0
  0
LINE
  5
182
330
6F
100
AcDbEntity
  8
_4-C_ハッチ
  6
Continuous
 62
    83
100
AcDbLine
 10
92.68383386367235
 20
190.8477272727272
 30
0.0
 11
92.68383386367235
 21
196.7727272727272
 31
0.0
  0
LINE
  5
183
330
6F
100
AcDbEntity
  8
_4-C_ハッチ
  6
Continuous
 62
    83
100
AcDbLine
 10
91.93383386367235
 20
190.8477272727272
 30
0.0
 11
91.93383386367235
 21
196.7727272727272
 31
0.0
  0
LINE
  5
184
330
6F
100
AcDbEntity
  8
_4-C_ハッチ
  6
Continuous
 62
    83
100
AcDbLine
 10
91.18383386367234
 20
190.8477272727272
 30
0.0
 11
91.18383386367234
 21
196.7727272727272
 31
0.0
  0
LINE
  5
185
330
6F
100
AcDbEntity
  8
_4-C_ハッチ
  6
Continuous
 62
    83
100
AcDbLine
 10
90.43383386367235
 20
190.8477272727272
 30
0.0
 11
90.43383386367235
 21
196.7727272727272
 31
0.0
  0
LINE
  5
186
330
6F
100
AcDbEntity
  8
_4-C_ハッチ
  6
Continuous
 62
    83
100
AcDbLine
 10
89.68383386367234
 20
190.8477272727272
 30
0.0
 11
89.68383386367234
 21
196.7727272727272
 31
0.0
  0
LINE
  5
187
330
6F
100
AcDbEntity
  8
_4-C_ハッチ
  6
Continuous
 62
    83
100
AcDbLine
 10
88.93383386367235
 20
190.8477272727272
 30
0.0
 11
88.93383386367235
 21
196.7727272727272
 31
0.0
  0
LINE
  5
188
330
6F
100
AcDbEntity
  8
_4-C_ハッチ
  6
Continuous
 62
    83
100
AcDbLine
 10
88.18383386367235
 20
190.8477272727272
 30
0.0
 11
88.18383386367235
 21
196.7727272727272
 31
0.0
  0
LINE
  5
189
330
6F
100
AcDbEntity
  8
_4-C_ハッチ
  6
Continuous
 62
    83
100
AcDbLine
 10
87.43383386367234
 20
190.8477272727272
 30
0.0
 11
87.43383386367234
 21
196.7727272727272
 31
0.0
  0
LINE
  5
18A
330
6F
100
AcDbEntity
  8
_4-C_ハッチ
  6
Continuous
 62
    83
100
AcDbLine
 10
86.68383386367235
 20
190.8477272727272
 30
0.0
 11
86.68383386367235
 21
196.7727272727272
 31
0.0
  0
LINE
  5
18B
330
6F
100
AcDbEntity
  8
_4-C_ハッチ
  6
Continuous
 62
    83
100
AcDbLine
 10
85.93383386367234
 20
190.8477272727272
 30
0.0
 11
85.93383386367234
 21
196.7727272727272
 31
0.0
  0
LINE
  5
18C
330
6F
100
AcDbEntity
  8
_4-C_ハッチ
  6
Continuous
 62
    83
100
AcDbLine
 10
85.18383386367235
 20
190.8477272727272
 30
0.0
 11
85.18383386367235
 21
196.7727272727272
 31
0.0
  0
LINE
  5
18D
330
6F
100
AcDbEntity
  8
_4-C_ハッチ
  6
Continuous
 62
    83
100
AcDbLine
 10
84.43383386367235
 20
190.8477272727272
 30
0.0
 11
84.43383386367235
 21
196.7727272727272
 31
0.0
  0
LINE
  5
18E
330
6F
100
AcDbEntity
  8
_4-C_ハッチ
  6
Continuous
 62
    83
100
AcDbLine
 10
83.68383386367234
 20
190.8477272727272
 30
0.0
 11
83.68383386367234
 21
196.7727272727272
 31
0.0
  0
LINE
  5
18F
330
6F
100
AcDbEntity
  8
_4-C_ハッチ
  6
Continuous
 62
    83
100
AcDbLine
 10
82.93383386367235
 20
190.8477272727272
 30
0.0
 11
82.93383386367235
 21
196.7727272727272
 31
0.0
  0
LINE
  5
190
330
6F
100
AcDbEntity
  8
_4-C_ハッチ
  6
Continuous
 62
    83
100
AcDbLine
 10
82.18383386367234
 20
190.8477272727272
 30
0.0
 11
82.18383386367234
 21
196.7727272727272
 31
0.0
  0
LINE
  5
191
330
6F
100
AcDbEntity
  8
_4-C_ハッチ
  6
Continuous
 62
    83
100
AcDbLine
 10
81.43383386367235
 20
190.8477272727272
 30
0.0
 11
81.43383386367235
 21
196.7727272727272
 31
0.0
  0
LINE
  5
192
330
6F
100
AcDbEntity
  8
_4-C_ハッチ
  6
Continuous
 62
    83
100
AcDbLine
 10
80.68383386367235
 20
190.8477272727272
 30
0.0
 11
80.68383386367235
 21
196.7727272727272
 31
0.0
  0
LINE
  5
193
330
6F
100
AcDbEntity
  8
_4-C_ハッチ
  6
Continuous
 62
    83
100
AcDbLine
 10
79.93383386367234
 20
190.8477272727272
 30
0.0
 11
79.93383386367234
 21
196.7727272727272
 31
0.0
  0
LINE
  5
194
330
6F
100
AcDbEntity
  8
_4-C_ハッチ
  6
Continuous
 62
    83
100
AcDbLine
 10
79.18383386367235
 20
190.8477272727272
 30
0.0
 11
79.18383386367235
 21
196.7727272727272
 31
0.0
  0
LINE
  5
195
330
6F
100
AcDbEntity
  8
_4-C_ハッチ
  6
Continuous
 62
    83
100
AcDbLine
 10
78.43383386367235
 20
190.8477272727272
 30
0.0
 11
78.43383386367235
 21
196.7727272727272
 31
0.0
  0
LINE
  5
196
330
6F
100
AcDbEntity
  8
_4-C_ハッチ
  6
Continuous
 62
    83
100
AcDbLine
 10
77.68383386367235
 20
190.8477272727272
 30
0.0
 11
77.68383386367235
 21
196.7727272727272
 31
0.0
  0
LINE
  5
197
330
6F
100
AcDbEntity
  8
_4-C_ハッチ
  6
Continuous
 62
    83
100
AcDbLine
 10
76.93383386367234
 20
190.8477272727272
 30
0.0
 11
76.93383386367234
 21
196.7727272727272
 31
0.0
  0
LINE
  5
198
330
6F
100
AcDbEntity
  8
_4-C_ハッチ
  6
Continuous
 62
    83
100
AcDbLine
 10
76.18383386367234
 20
190.8477272727272
 30
0.0
 11
76.18383386367234
 21
196.7727272727272
 31
0.0
  0
LINE
  5
199
330
6F
100
AcDbEntity
  8
_4-C_ハッチ
  6
Continuous
 62
    83
100
AcDbLine
 10
75.43383386367235
 20
190.8477272727272
 30
0.0
 11
75.43383386367235
 21
196.7727272727272
 31
0.0
  0
LINE
  5
19A
330
6F
100
AcDbEntity
  8
_4-C_ハッチ
  6
Continuous
 62
    83
100
AcDbLine
 10
74.68383386367235
 20
190.8477272727272
 30
0.0
 11
74.68383386367235
 21
196.7727272727272
 31
0.0
  0
LINE
  5
19B
330
6F
100
AcDbEntity
  8
_4-C_ハッチ
  6
Continuous
 62
    83
100
AcDbLine
 10
73.93383386367235
 20
190.8477272727272
 30
0.0
 11
73.93383386367235
 21
196.7727272727272
 31
0.0
  0
LINE
  5
19C
330
6F
100
AcDbEntity
  8
_4-C_ハッチ
  6
Continuous
 62
    83
100
AcDbLine
 10
73.18383386367234
 20
190.8477272727272
 30
0.0
 11
73.18383386367234
 21
196.7727272727272
 31
0.0
  0
LINE
  5
19D
330
6F
100
AcDbEntity
  8
_4-C_ハッチ
  6
Continuous
 62
    83
100
AcDbLine
 10
72.43383386367234
 20
190.8477272727272
 30
0.0
 11
72.43383386367234
 21
196.7727272727272
 31
0.0
  0
LINE
  5
19E
330
6F
100
AcDbEntity
  8
_4-C_ハッチ
  6
Continuous
 62
    83
100
AcDbLine
 10
71.68383386367236
 20
190.8477272727272
 30
0.0
 11
71.68383386367236
 21
196.7727272727272
 31
0.0
  0
LINE
  5
19F
330
6F
100
AcDbEntity
  8
_4-C_ハッチ
  6
Continuous
 62
    83
100
AcDbLine
 10
70.93383386367236
 20
190.8477272727272
 30
0.0
 11
70.93383386367236
 21
196.7727272727272
 31
0.0
  0
LINE
  5
1A0
330
6F
100
AcDbEntity
  8
_4-C_ハッチ
  6
Continuous
 62
    83
100
AcDbLine
 10
70.18383386367236
 20
190.8477272727272
 30
0.0
 11
70.18383386367236
 21
196.7727272727272
 31
0.0
  0
LINE
  5
1A1
330
6F
100
AcDbEntity
  8
_4-C_ハッチ
  6
Continuous
 62
    83
100
AcDbLine
 10
69.43383386367236
 20
190.8477272727272
 30
0.0
 11
69.43383386367236
 21
196.7727272727272
 31
0.0
  0
LINE
  5
1A2
330
6F
100
AcDbEntity
  8
_4-C_ハッチ
  6
Continuous
 62
    83
100
AcDbLine
 10
61.2217444438696
 20
155.4977272727272
 30
0.0
 11
61.2217444438696
 21
149.5727272727272
 31
0.0
  0
LINE
  5
1A3
330
6F
100
AcDbEntity
  8
_4-C_ハッチ
  6
Continuous
 62
    83
100
AcDbLine
 10
114.4717444438696
 20
155.4977272727272
 30
0.0
 11
114.4717444438696
 21
149.5727272727272
 31
0.0
  0
LINE
  5
1A4
330
6F
100
AcDbEntity
  8
_4-C_ハッチ
  6
Continuous
 62
    83
100
AcDbLine
 10
61.9717444438696
 20
155.4977272727272
 30
0.0
 11
61.9717444438696
 21
149.5727272727272
 31
0.0
  0
LINE
  5
1A5
330
6F
100
AcDbEntity
  8
_4-C_ハッチ
  6
Continuous
 62
    83
100
AcDbLine
 10
62.7217444438696
 20
155.4977272727272
 30
0.0
 11
62.7217444438696
 21
149.5727272727272
 31
0.0
  0
LINE
  5
1A6
330
6F
100
AcDbEntity
  8
_4-C_ハッチ
  6
Continuous
 62
    83
100
AcDbLine
 10
63.4717444438696
 20
155.4977272727272
 30
0.0
 11
63.4717444438696
 21
149.5727272727272
 31
0.0
  0
LINE
  5
1A7
330
6F
100
AcDbEntity
  8
_4-C_ハッチ
  6
Continuous
 62
    83
100
AcDbLine
 10
64.2217444438696
 20
155.4977272727272
 30
0.0
 11
64.2217444438696
 21
149.5727272727272
 31
0.0
  0
LINE
  5
1A8
330
6F
100
AcDbEntity
  8
_4-C_ハッチ
  6
Continuous
 62
    83
100
AcDbLine
 10
64.9717444438696
 20
155.4977272727272
 30
0.0
 11
64.9717444438696
 21
149.5727272727272
 31
0.0
  0
LINE
  5
1A9
330
6F
100
AcDbEntity
  8
_4-C_ハッチ
  6
Continuous
 62
    83
100
AcDbLine
 10
65.72174444386959
 20
155.4977272727272
 30
0.0
 11
65.72174444386959
 21
149.5727272727272
 31
0.0
  0
LINE
  5
1AA
330
6F
100
AcDbEntity
  8
_4-C_ハッチ
  6
Continuous
 62
    83
100
AcDbLine
 10
66.47174444386959
 20
155.4977272727272
 30
0.0
 11
66.47174444386959
 21
149.5727272727272
 31
0.0
  0
LINE
  5
1AB
330
6F
100
AcDbEntity
  8
_4-C_ハッチ
  6
Continuous
 62
    83
100
AcDbLine
 10
67.22174444386959
 20
155.4977272727272
 30
0.0
 11
67.22174444386959
 21
149.5727272727272
 31
0.0
  0
LINE
  5
1AC
330
6F
100
AcDbEntity
  8
_4-C_ハッチ
  6
Continuous
 62
    83
100
AcDbLine
 10
67.9717444438696
 20
155.4977272727272
 30
0.0
 11
67.9717444438696
 21
149.5727272727272
 31
0.0
  0
LINE
  5
1AD
330
6F
100
AcDbEntity
  8
_4-C_ハッチ
  6
Continuous
 62
    83
100
AcDbLine
 10
68.7217444438696
 20
155.4977272727272
 30
0.0
 11
68.7217444438696
 21
149.5727272727272
 31
0.0
  0
LINE
  5
1AE
330
6F
100
AcDbEntity
  8
_4-C_ハッチ
  6
Continuous
 62
    83
100
AcDbLine
 10
69.47174444386959
 20
155.4977272727272
 30
0.0
 11
69.47174444386959
 21
149.5727272727272
 31
0.0
  0
LINE
  5
1AF
330
6F
100
AcDbEntity
  8
_4-C_ハッチ
  6
Continuous
 62
    83
100
AcDbLine
 10
70.22174444386959
 20
155.4977272727272
 30
0.0
 11
70.22174444386959
 21
149.5727272727272
 31
0.0
  0
LINE
  5
1B0
330
6F
100
AcDbEntity
  8
_4-C_ハッチ
  6
Continuous
 62
    83
100
AcDbLine
 10
70.97174444386959
 20
155.4977272727272
 30
0.0
 11
70.97174444386959
 21
149.5727272727272
 31
0.0
  0
LINE
  5
1B1
330
6F
100
AcDbEntity
  8
_4-C_ハッチ
  6
Continuous
 62
    83
100
AcDbLine
 10
71.7217444438696
 20
155.4977272727272
 30
0.0
 11
71.7217444438696
 21
149.5727272727272
 31
0.0
  0
LINE
  5
1B2
330
6F
100
AcDbEntity
  8
_4-C_ハッチ
  6
Continuous
 62
    83
100
AcDbLine
 10
72.47174444386958
 20
155.4977272727272
 30
0.0
 11
72.47174444386958
 21
149.5727272727272
 31
0.0
  0
LINE
  5
1B3
330
6F
100
AcDbEntity
  8
_4-C_ハッチ
  6
Continuous
 62
    83
100
AcDbLine
 10
73.22174444386958
 20
155.4977272727272
 30
0.0
 11
73.22174444386958
 21
149.5727272727272
 31
0.0
  0
LINE
  5
1B4
330
6F
100
AcDbEntity
  8
_4-C_ハッチ
  6
Continuous
 62
    83
100
AcDbLine
 10
73.97174444386958
 20
155.4977272727272
 30
0.0
 11
73.97174444386958
 21
149.5727272727272
 31
0.0
  0
LINE
  5
1B5
330
6F
100
AcDbEntity
  8
_4-C_ハッチ
  6
Continuous
 62
    83
100
AcDbLine
 10
74.72174444386958
 20
155.4977272727272
 30
0.0
 11
74.72174444386958
 21
149.5727272727272
 31
0.0
  0
LINE
  5
1B6
330
6F
100
AcDbEntity
  8
_4-C_ハッチ
  6
Continuous
 62
    83
100
AcDbLine
 10
75.47174444386958
 20
155.4977272727272
 30
0.0
 11
75.47174444386958
 21
149.5727272727272
 31
0.0
  0
LINE
  5
1B7
330
6F
100
AcDbEntity
  8
_4-C_ハッチ
  6
Continuous
 62
    83
100
AcDbLine
 10
76.22174444386958
 20
155.4977272727272
 30
0.0
 11
76.22174444386958
 21
149.5727272727272
 31
0.0
  0
LINE
  5
1B8
330
6F
100
AcDbEntity
  8
_4-C_ハッチ
  6
Continuous
 62
    83
100
AcDbLine
 10
76.97174444386958
 20
155.4977272727272
 30
0.0
 11
76.97174444386958
 21
149.5727272727272
 31
0.0
  0
LINE
  5
1B9
330
6F
100
AcDbEntity
  8
_4-C_ハッチ
  6
Continuous
 62
    83
100
AcDbLine
 10
77.72174444386958
 20
155.4977272727272
 30
0.0
 11
77.72174444386958
 21
149.5727272727272
 31
0.0
  0
LINE
  5
1BA
330
6F
100
AcDbEntity
  8
_4-C_ハッチ
  6
Continuous
 62
    83
100
AcDbLine
 10
78.47174444386958
 20
155.4977272727272
 30
0.0
 11
78.47174444386958
 21
149.5727272727272
 31
0.0
  0
LINE
  5
1BB
330
6F
100
AcDbEntity
  8
_4-C_ハッチ
  6
Continuous
 62
    83
100
AcDbLine
 10
79.22174444386958
 20
155.4977272727272
 30
0.0
 11
79.22174444386958
 21
149.5727272727272
 31
0.0
  0
LINE
  5
1BC
330
6F
100
AcDbEntity
  8
_4-C_ハッチ
  6
Continuous
 62
    83
100
AcDbLine
 10
79.97174444386958
 20
155.4977272727272
 30
0.0
 11
79.97174444386958
 21
149.5727272727272
 31
0.0
  0
LINE
  5
1BD
330
6F
100
AcDbEntity
  8
_4-C_ハッチ
  6
Continuous
 62
    83
100
AcDbLine
 10
80.72174444386957
 20
155.4977272727272
 30
0.0
 11
80.72174444386957
 21
149.5727272727272
 31
0.0
  0
LINE
  5
1BE
330
6F
100
AcDbEntity
  8
_4-C_ハッチ
  6
Continuous
 62
    83
100
AcDbLine
 10
81.47174444386958
 20
155.4977272727272
 30
0.0
 11
81.47174444386958
 21
149.5727272727272
 31
0.0
  0
LINE
  5
1BF
330
6F
100
AcDbEntity
  8
_4-C_ハッチ
  6
Continuous
 62
    83
100
AcDbLine
 10
82.22174444386958
 20
155.4977272727272
 30
0.0
 11
82.22174444386958
 21
149.5727272727272
 31
0.0
  0
LINE
  5
1C0
330
6F
100
AcDbEntity
  8
_4-C_ハッチ
  6
Continuous
 62
    83
100
AcDbLine
 10
82.97174444386959
 20
155.4977272727272
 30
0.0
 11
82.97174444386959
 21
149.5727272727272
 31
0.0
  0
LINE
  5
1C1
330
6F
100
AcDbEntity
  8
_4-C_ハッチ
  6
Continuous
 62
    83
100
AcDbLine
 10
83.72174444386958
 20
155.4977272727272
 30
0.0
 11
83.72174444386958
 21
149.5727272727272
 31
0.0
  0
LINE
  5
1C2
330
6F
100
AcDbEntity
  8
_4-C_ハッチ
  6
Continuous
 62
    83
100
AcDbLine
 10
84.47174444386957
 20
155.4977272727272
 30
0.0
 11
84.47174444386957
 21
149.5727272727272
 31
0.0
  0
LINE
  5
1C3
330
6F
100
AcDbEntity
  8
_4-C_ハッチ
  6
Continuous
 62
    83
100
AcDbLine
 10
85.22174444386958
 20
155.4977272727272
 30
0.0
 11
85.22174444386958
 21
149.5727272727272
 31
0.0
  0
LINE
  5
1C4
330
6F
100
AcDbEntity
  8
_4-C_ハッチ
  6
Continuous
 62
    83
100
AcDbLine
 10
85.97174444386956
 20
155.4977272727272
 30
0.0
 11
85.97174444386956
 21
149.5727272727272
 31
0.0
  0
LINE
  5
1C5
330
6F
100
AcDbEntity
  8
_4-C_ハッチ
  6
Continuous
 62
    83
100
AcDbLine
 10
86.72174444386957
 20
155.4977272727272
 30
0.0
 11
86.72174444386957
 21
149.5727272727272
 31
0.0
  0
LINE
  5
1C6
330
6F
100
AcDbEntity
  8
_4-C_ハッチ
  6
Continuous
 62
    83
100
AcDbLine
 10
87.47174444386956
 20
155.4977272727272
 30
0.0
 11
87.47174444386956
 21
149.5727272727272
 31
0.0
  0
LINE
  5
1C7
330
6F
100
AcDbEntity
  8
_4-C_ハッチ
  6
Continuous
 62
    83
100
AcDbLine
 10
88.22174444386957
 20
155.4977272727272
 30
0.0
 11
88.22174444386957
 21
149.5727272727272
 31
0.0
  0
LINE
  5
1C8
330
6F
100
AcDbEntity
  8
_4-C_ハッチ
  6
Continuous
 62
    83
100
AcDbLine
 10
88.97174444386957
 20
155.4977272727272
 30
0.0
 11
88.97174444386957
 21
149.5727272727272
 31
0.0
  0
LINE
  5
1C9
330
6F
100
AcDbEntity
  8
_4-C_ハッチ
  6
Continuous
 62
    83
100
AcDbLine
 10
89.72174444386956
 20
155.4977272727272
 30
0.0
 11
89.72174444386956
 21
149.5727272727272
 31
0.0
  0
LINE
  5
1CA
330
6F
100
AcDbEntity
  8
_4-C_ハッチ
  6
Continuous
 62
    83
100
AcDbLine
 10
90.47174444386959
 20
155.4977272727272
 30
0.0
 11
90.47174444386959
 21
149.5727272727272
 31
0.0
  0
LINE
  5
1CB
330
6F
100
AcDbEntity
  8
_4-C_ハッチ
  6
Continuous
 62
    83
100
AcDbLine
 10
91.2217444438696
 20
155.4977272727272
 30
0.0
 11
91.2217444438696
 21
149.5727272727272
 31
0.0
  0
LINE
  5
1CC
330
6F
100
AcDbEntity
  8
_4-C_ハッチ
  6
Continuous
 62
    83
100
AcDbLine
 10
91.97174444386959
 20
155.4977272727272
 30
0.0
 11
91.97174444386959
 21
149.5727272727272
 31
0.0
  0
LINE
  5
1CD
330
6F
100
AcDbEntity
  8
_4-C_ハッチ
  6
Continuous
 62
    83
100
AcDbLine
 10
92.7217444438696
 20
155.4977272727272
 30
0.0
 11
92.7217444438696
 21
149.5727272727272
 31
0.0
  0
LINE
  5
1CE
330
6F
100
AcDbEntity
  8
_4-C_ハッチ
  6
Continuous
 62
    83
100
AcDbLine
 10
93.47174444386959
 20
155.4977272727272
 30
0.0
 11
93.47174444386959
 21
149.5727272727272
 31
0.0
  0
LINE
  5
1CF
330
6F
100
AcDbEntity
  8
_4-C_ハッチ
  6
Continuous
 62
    83
100
AcDbLine
 10
94.22174444386959
 20
155.4977272727272
 30
0.0
 11
94.22174444386959
 21
149.5727272727272
 31
0.0
  0
LINE
  5
1D0
330
6F
100
AcDbEntity
  8
_4-C_ハッチ
  6
Continuous
 62
    83
100
AcDbLine
 10
94.9717444438696
 20
155.4977272727272
 30
0.0
 11
94.9717444438696
 21
149.5727272727272
 31
0.0
  0
LINE
  5
1D1
330
6F
100
AcDbEntity
  8
_4-C_ハッチ
  6
Continuous
 62
    83
100
AcDbLine
 10
95.72174444386959
 20
155.4977272727272
 30
0.0
 11
95.72174444386959
 21
149.5727272727272
 31
0.0
  0
LINE
  5
1D2
330
6F
100
AcDbEntity
  8
_4-C_ハッチ
  6
Continuous
 62
    83
100
AcDbLine
 10
96.4717444438696
 20
155.4977272727272
 30
0.0
 11
96.4717444438696
 21
149.5727272727272
 31
0.0
  0
LINE
  5
1D3
330
6F
100
AcDbEntity
  8
_4-C_ハッチ
  6
Continuous
 62
    83
100
AcDbLine
 10
97.22174444386959
 20
155.4977272727272
 30
0.0
 11
97.22174444386959
 21
149.5727272727272
 31
0.0
  0
LINE
  5
1D4
330
6F
100
AcDbEntity
  8
_4-C_ハッチ
  6
Continuous
 62
    83
100
AcDbLine
 10
97.97174444386961
 20
155.4977272727272
 30
0.0
 11
97.97174444386961
 21
149.5727272727272
 31
0.0
  0
LINE
  5
1D5
330
6F
100
AcDbEntity
  8
_4-C_ハッチ
  6
Continuous
 62
    83
100
AcDbLine
 10
98.7217444438696
 20
155.4977272727272
 30
0.0
 11
98.7217444438696
 21
149.5727272727272
 31
0.0
  0
LINE
  5
1D6
330
6F
100
AcDbEntity
  8
_4-C_ハッチ
  6
Continuous
 62
    83
100
AcDbLine
 10
99.47174444386959
 20
155.4977272727272
 30
0.0
 11
99.47174444386959
 21
149.5727272727272
 31
0.0
  0
LINE
  5
1D7
330
6F
100
AcDbEntity
  8
_4-C_ハッチ
  6
Continuous
 62
    83
100
AcDbLine
 10
100.2217444438696
 20
155.4977272727272
 30
0.0
 11
100.2217444438696
 21
149.5727272727272
 31
0.0
  0
LINE
  5
1D8
330
6F
100
AcDbEntity
  8
_4-C_ハッチ
  6
Continuous
 62
    83
100
AcDbLine
 10
100.9717444438696
 20
155.4977272727272
 30
0.0
 11
100.9717444438696
 21
149.5727272727272
 31
0.0
  0
LINE
  5
1D9
330
6F
100
AcDbEntity
  8
_4-C_ハッチ
  6
Continuous
 62
    83
100
AcDbLine
 10
101.7217444438696
 20
155.4977272727272
 30
0.0
 11
101.7217444438696
 21
149.5727272727272
 31
0.0
  0
LINE
  5
1DA
330
6F
100
AcDbEntity
  8
_4-C_ハッチ
  6
Continuous
 62
    83
100
AcDbLine
 10
102.4717444438696
 20
155.4977272727272
 30
0.0
 11
102.4717444438696
 21
149.5727272727272
 31
0.0
  0
LINE
  5
1DB
330
6F
100
AcDbEntity
  8
_4-C_ハッチ
  6
Continuous
 62
    83
100
AcDbLine
 10
103.2217444438696
 20
155.4977272727272
 30
0.0
 11
103.2217444438696
 21
149.5727272727272
 31
0.0
  0
LINE
  5
1DC
330
6F
100
AcDbEntity
  8
_4-C_ハッチ
  6
Continuous
 62
    83
100
AcDbLine
 10
103.9717444438696
 20
155.4977272727272
 30
0.0
 11
103.9717444438696
 21
149.5727272727272
 31
0.0
  0
LINE
  5
1DD
330
6F
100
AcDbEntity
  8
_4-C_ハッチ
  6
Continuous
 62
    83
100
AcDbLine
 10
104.7217444438696
 20
155.4977272727272
 30
0.0
 11
104.7217444438696
 21
149.5727272727272
 31
0.0
  0
LINE
  5
1DE
330
6F
100
AcDbEntity
  8
_4-C_ハッチ
  6
Continuous
 62
    83
100
AcDbLine
 10
105.4717444438696
 20
155.4977272727272
 30
0.0
 11
105.4717444438696
 21
149.5727272727272
 31
0.0
  0
LINE
  5
1DF
330
6F
100
AcDbEntity
  8
_4-C_ハッチ
  6
Continuous
 62
    83
100
AcDbLine
 10
106.2217444438696
 20
155.4977272727272
 30
0.0
 11
106.2217444438696
 21
149.5727272727272
 31
0.0
  0
LINE
  5
1E0
330
6F
100
AcDbEntity
  8
_4-C_ハッチ
  6
Continuous
 62
    83
100
AcDbLine
 10
106.9717444438696
 20
155.4977272727272
 30
0.0
 11
106.9717444438696
 21
149.5727272727272
 31
0.0
  0
LINE
  5
1E1
330
6F
100
AcDbEntity
  8
_4-C_ハッチ
  6
Continuous
 62
    83
100
AcDbLine
 10
107.7217444438696
 20
155.4977272727272
 30
0.0
 11
107.7217444438696
 21
149.5727272727272
 31
0.0
  0
LINE
  5
1E2
330
6F
100
AcDbEntity
  8
_4-C_ハッチ
  6
Continuous
 62
    83
100
AcDbLine
 10
108.4717444438696
 20
155.4977272727272
 30
0.0
 11
108.4717444438696
 21
149.5727272727272
 31
0.0
  0
LINE
  5
1E3
330
6F
100
AcDbEntity
  8
_4-C_ハッチ
  6
Continuous
 62
    83
100
AcDbLine
 10
109.2217444438696
 20
155.4977272727272
 30
0.0
 11
109.2217444438696
 21
149.5727272727272
 31
0.0
  0
LINE
  5
1E4
330
6F
100
AcDbEntity
  8
_4-C_ハッチ
  6
Continuous
 62
    83
100
AcDbLine
 10
109.9717444438696
 20
155.4977272727272
 30
0.0
 11
109.9717444438696
 21
149.5727272727272
 31
0.0
  0
LINE
  5
1E5
330
6F
100
AcDbEntity
  8
_4-C_ハッチ
  6
Continuous
 62
    83
100
AcDbLine
 10
110.7217444438696
 20
155.4977272727272
 30
0.0
 11
110.7217444438696
 21
149.5727272727272
 31
0.0
  0
LINE
  5
1E6
330
6F
100
AcDbEntity
  8
_4-C_ハッチ
  6
Continuous
 62
    83
100
AcDbLine
 10
111.4717444438696
 20
155.4977272727272
 30
0.0
 11
111.4717444438696
 21
149.5727272727272
 31
0.0
  0
LINE
  5
1E7
330
6F
100
AcDbEntity
  8
_4-C_ハッチ
  6
Continuous
 62
    83
100
AcDbLine
 10
112.2217444438696
 20
155.4977272727272
 30
0.0
 11
112.2217444438696
 21
149.5727272727272
 31
0.0
  0
LINE
  5
1E8
330
6F
100
AcDbEntity
  8
_4-C_ハッチ
  6
Continuous
 62
    83
100
AcDbLine
 10
112.9717444438696
 20
155.4977272727272
 30
0.0
 11
112.9717444438696
 21
149.5727272727272
 31
0.0
  0
LINE
  5
1E9
330
6F
100
AcDbEntity
  8
_4-C_ハッチ
  6
Continuous
 62
    83
100
AcDbLine
 10
113.7217444438696
 20
155.4977272727272
 30
0.0
 11
113.7217444438696
 21
149.5727272727272
 31
0.0
  0
LINE
  5
1EA
330
6F
100
AcDbEntity
  8
_4-C_ハッチ
  6
Continuous
 62
    83
100
AcDbLine
 10
60.10278915377097
 20
186.1954492249281
 30
0.0
 11
54.67778915377095
 21
186.1954492249281
 31
0.0
  0
LINE
  5
1EB
330
6F
100
AcDbEntity
  8
_4-C_ハッチ
  6
Continuous
 62
    83
100
AcDbLine
 10
60.10278915377097
 20
185.4454492249281
 30
0.0
 11
54.67778915377095
 21
185.4454492249281
 31
0.0
  0
LINE
  5
1EC
330
6F
100
AcDbEntity
  8
_4-C_ハッチ
  6
Continuous
 62
    83
100
AcDbLine
 10
60.10278915377097
 20
184.6954492249281
 30
0.0
 11
54.67778915377095
 21
184.6954492249281
 31
0.0
  0
LINE
  5
1ED
330
6F
100
AcDbEntity
  8
_4-C_ハッチ
  6
Continuous
 62
    83
100
AcDbLine
 10
60.10278915377097
 20
183.9454492249281
 30
0.0
 11
54.67778915377095
 21
183.9454492249281
 31
0.0
  0
LINE
  5
1EE
330
6F
100
AcDbEntity
  8
_4-C_ハッチ
  6
Continuous
 62
    83
100
AcDbLine
 10
60.10278915377097
 20
183.1954492249281
 30
0.0
 11
54.67778915377095
 21
183.1954492249281
 31
0.0
  0
LINE
  5
1EF
330
6F
100
AcDbEntity
  8
_4-C_ハッチ
  6
Continuous
 62
    83
100
AcDbLine
 10
60.10278915377097
 20
182.4454492249281
 30
0.0
 11
54.67778915377095
 21
182.4454492249281
 31
0.0
  0
LINE
  5
1F0
330
6F
100
AcDbEntity
  8
_4-C_ハッチ
  6
Continuous
 62
    83
100
AcDbLine
 10
60.10278915377097
 20
181.6954492249281
 30
0.0
 11
54.67778915377095
 21
181.6954492249281
 31
0.0
  0
LINE
  5
1F1
330
6F
100
AcDbEntity
  8
_4-C_ハッチ
  6
Continuous
 62
    83
100
AcDbLine
 10
60.10278915377097
 20
180.9454492249281
 30
0.0
 11
54.67778915377095
 21
180.9454492249281
 31
0.0
  0
LINE
  5
1F2
330
6F
100
AcDbEntity
  8
_4-C_ハッチ
  6
Continuous
 62
    83
100
AcDbLine
 10
60.10278915377097
 20
180.1954492249281
 30
0.0
 11
54.67778915377095
 21
180.1954492249281
 31
0.0
  0
LINE
  5
1F3
330
6F
100
AcDbEntity
  8
_4-C_ハッチ
  6
Continuous
 62
    83
100
AcDbLine
 10
60.10278915377097
 20
179.4454492249281
 30
0.0
 11
54.67778915377095
 21
179.4454492249281
 31
0.0
  0
LINE
  5
1F4
330
6F
100
AcDbEntity
  8
_4-C_ハッチ
  6
Continuous
 62
    83
100
AcDbLine
 10
60.10278915377097
 20
178.6954492249281
 30
0.0
 11
54.67778915377095
 21
178.6954492249281
 31
0.0
  0
LINE
  5
1F5
330
6F
100
AcDbEntity
  8
_4-C_ハッチ
  6
Continuous
 62
    83
100
AcDbLine
 10
60.10278915377097
 20
177.9454492249281
 30
0.0
 11
54.67778915377095
 21
177.9454492249281
 31
0.0
  0
LINE
  5
1F6
330
6F
100
AcDbEntity
  8
_4-C_ハッチ
  6
Continuous
 62
    83
100
AcDbLine
 10
60.10278915377097
 20
177.1954492249281
 30
0.0
 11
54.67778915377095
 21
177.1954492249281
 31
0.0
  0
LINE
  5
1F7
330
6F
100
AcDbEntity
  8
_4-C_ハッチ
  6
Continuous
 62
    83
100
AcDbLine
 10
60.10278915377097
 20
176.4454492249281
 30
0.0
 11
54.67778915377095
 21
176.4454492249281
 31
0.0
  0
LINE
  5
1F8
330
6F
100
AcDbEntity
  8
_4-C_ハッチ
  6
Continuous
 62
    83
100
AcDbLine
 10
60.10278915377097
 20
175.6954492249281
 30
0.0
 11
54.67778915377093
 21
175.6954492249281
 31
0.0
  0
LINE
  5
1F9
330
6F
100
AcDbEntity
  8
_4-C_ハッチ
  6
Continuous
 62
    83
100
AcDbLine
 10
60.10278915377097
 20
174.9454492249281
 30
0.0
 11
54.67778915377093
 21
174.9454492249281
 31
0.0
  0
LINE
  5
1FA
330
6F
100
AcDbEntity
  8
_4-C_ハッチ
  6
Continuous
 62
    83
100
AcDbLine
 10
60.10278915377097
 20
174.1954492249281
 30
0.0
 11
54.67778915377093
 21
174.1954492249281
 31
0.0
  0
LINE
  5
1FB
330
6F
100
AcDbEntity
  8
_4-C_ハッチ
  6
Continuous
 62
    83
100
AcDbLine
 10
60.10278915377097
 20
173.4454492249281
 30
0.0
 11
54.67778915377093
 21
173.4454492249281
 31
0.0
  0
LINE
  5
1FC
330
6F
100
AcDbEntity
  8
_4-C_ハッチ
  6
Continuous
 62
    83
100
AcDbLine
 10
60.10278915377097
 20
172.6954492249281
 30
0.0
 11
54.67778915377093
 21
172.6954492249281
 31
0.0
  0
LINE
  5
1FD
330
6F
100
AcDbEntity
  8
_4-C_ハッチ
  6
Continuous
 62
    83
100
AcDbLine
 10
60.10278915377097
 20
171.9454492249281
 30
0.0
 11
54.67778915377093
 21
171.9454492249281
 31
0.0
  0
LINE
  5
1FE
330
6F
100
AcDbEntity
  8
_4-C_ハッチ
  6
Continuous
 62
    83
100
AcDbLine
 10
60.10278915377097
 20
171.1954492249281
 30
0.0
 11
54.67778915377093
 21
171.1954492249281
 31
0.0
  0
LINE
  5
1FF
330
6F
100
AcDbEntity
  8
_4-C_ハッチ
  6
Continuous
 62
    83
100
AcDbLine
 10
60.10278915377097
 20
170.4454492249281
 30
0.0
 11
54.67778915377093
 21
170.4454492249281
 31
0.0
  0
LINE
  5
200
330
6F
100
AcDbEntity
  8
_4-C_ハッチ
  6
Continuous
 62
    83
100
AcDbLine
 10
60.10278915377097
 20
169.6954492249281
 30
0.0
 11
54.67778915377093
 21
169.6954492249281
 31
0.0
  0
LINE
  5
201
330
6F
100
AcDbEntity
  8
_4-C_ハッチ
  6
Continuous
 62
    83
100
AcDbLine
 10
60.10278915377097
 20
168.9454492249281
 30
0.0
 11
54.67778915377093
 21
168.9454492249281
 31
0.0
  0
LINE
  5
202
330
6F
100
AcDbEntity
  8
_4-C_ハッチ
  6
Continuous
 62
    83
100
AcDbLine
 10
60.10278915377097
 20
168.1954492249281
 30
0.0
 11
54.67778915377093
 21
168.1954492249281
 31
0.0
  0
LINE
  5
203
330
6F
100
AcDbEntity
  8
_4-C_ハッチ
  6
Continuous
 62
    83
100
AcDbLine
 10
60.10278915377097
 20
167.4454492249281
 30
0.0
 11
54.67778915377093
 21
167.4454492249281
 31
0.0
  0
LINE
  5
204
330
6F
100
AcDbEntity
  8
_4-C_ハッチ
  6
Continuous
 62
    83
100
AcDbLine
 10
60.10278915377097
 20
166.6954492249281
 30
0.0
 11
54.67778915377093
 21
166.6954492249281
 31
0.0
  0
LINE
  5
205
330
6F
100
AcDbEntity
  8
_4-C_ハッチ
  6
Continuous
 62
    83
100
AcDbLine
 10
60.10278915377097
 20
165.9454492249281
 30
0.0
 11
54.67778915377093
 21
165.9454492249281
 31
0.0
  0
LINE
  5
206
330
6F
100
AcDbEntity
  8
_4-C_ハッチ
  6
Continuous
 62
    83
100
AcDbLine
 10
60.10278915377097
 20
165.1954492249281
 30
0.0
 11
54.67778915377093
 21
165.1954492249281
 31
0.0
  0
LINE
  5
207
330
6F
100
AcDbEntity
  8
_4-C_ハッチ
  6
Continuous
 62
    83
100
AcDbLine
 10
60.10278915377097
 20
164.4454492249281
 30
0.0
 11
54.67778915377093
 21
164.4454492249281
 31
0.0
  0
LINE
  5
208
330
6F
100
AcDbEntity
  8
_4-C_ハッチ
  6
Continuous
 62
    83
100
AcDbLine
 10
60.10278915377097
 20
163.6954492249281
 30
0.0
 11
54.67778915377093
 21
163.6954492249281
 31
0.0
  0
LINE
  5
209
330
6F
100
AcDbEntity
  8
_4-C_ハッチ
  6
Continuous
 62
    83
100
AcDbLine
 10
60.10278915377097
 20
162.9454492249281
 30
0.0
 11
54.67778915377093
 21
162.9454492249281
 31
0.0
  0
LINE
  5
20A
330
6F
100
AcDbEntity
  8
_4-C_ハッチ
  6
Continuous
 62
    83
100
AcDbLine
 10
60.10278915377097
 20
162.1954492249281
 30
0.0
 11
54.67778915377093
 21
162.1954492249281
 31
0.0
  0
LINE
  5
20B
330
6F
100
AcDbEntity
  8
_4-C_ハッチ
  6
Continuous
 62
    83
100
AcDbLine
 10
60.10278915377097
 20
161.4454492249281
 30
0.0
 11
54.67778915377093
 21
161.4454492249281
 31
0.0
  0
LINE
  5
20C
330
6F
100
AcDbEntity
  8
_4-C_ハッチ
  6
Continuous
 62
    83
100
AcDbLine
 10
60.10278915377097
 20
160.6954492249281
 30
0.0
 11
54.67778915377093
 21
160.6954492249281
 31
0.0
  0
LINE
  5
20D
330
6F
100
AcDbEntity
  8
_4-C_ハッチ
  6
Continuous
 62
    83
100
AcDbLine
 10
60.10278915377097
 20
159.9454492249281
 30
0.0
 11
54.67778915377093
 21
159.9454492249281
 31
0.0
  0
LINE
  5
20E
330
6F
100
AcDbEntity
  8
_4-C_ハッチ
  6
Continuous
 62
    83
100
AcDbLine
 10
60.10278915377097
 20
159.1954492249281
 30
0.0
 11
54.67778915377093
 21
159.1954492249281
 31
0.0
  0
LINE
  5
20F
330
6F
100
AcDbEntity
  8
_4-C_ハッチ
  6
Continuous
 62
    83
100
AcDbLine
 10
60.10278915377097
 20
158.4454492249281
 30
0.0
 11
54.67778915377093
 21
158.4454492249281
 31
0.0
  0
LINE
  5
210
330
6F
100
AcDbEntity
  8
_4-C_ハッチ
  6
Continuous
 62
    83
100
AcDbLine
 10
60.10278915377097
 20
157.6954492249281
 30
0.0
 11
54.67778915377093
 21
157.6954492249281
 31
0.0
  0
LINE
  5
211
330
6F
100
AcDbEntity
  8
_4-C_ハッチ
  6
Continuous
 62
    83
100
AcDbLine
 10
60.10278915377097
 20
156.9454492249281
 30
0.0
 11
54.67778915377093
 21
156.9454492249281
 31
0.0
  0
LINE
  5
212
330
6F
100
AcDbEntity
  8
_4-C_ハッチ
  6
Continuous
 62
    83
100
AcDbLine
 10
60.10278915377097
 20
156.1954492249281
 30
0.0
 11
54.67778915377093
 21
156.1954492249281
 31
0.0
  0
LINE
  5
213
330
6F
100
AcDbEntity
  8
_4-C_ハッチ
  6
Continuous
 62
    83
100
AcDbLine
 10
115.5527891537709
 20
190.1500053205264
 30
0.0
 11
120.977789153771
 21
190.1500053205264
 31
0.0
  0
LINE
  5
214
330
6F
100
AcDbEntity
  8
_4-C_ハッチ
  6
Continuous
 62
    83
100
AcDbLine
 10
115.5527891537709
 20
156.4000053205264
 30
0.0
 11
120.977789153771
 21
156.4000053205264
 31
0.0
  0
LINE
  5
215
330
6F
100
AcDbEntity
  8
_4-C_ハッチ
  6
Continuous
 62
    83
100
AcDbLine
 10
115.5527891537709
 20
157.1500053205264
 30
0.0
 11
120.977789153771
 21
157.1500053205264
 31
0.0
  0
LINE
  5
216
330
6F
100
AcDbEntity
  8
_4-C_ハッチ
  6
Continuous
 62
    83
100
AcDbLine
 10
115.5527891537709
 20
157.9000053205264
 30
0.0
 11
120.977789153771
 21
157.9000053205264
 31
0.0
  0
LINE
  5
217
330
6F
100
AcDbEntity
  8
_4-C_ハッチ
  6
Continuous
 62
    83
100
AcDbLine
 10
115.5527891537709
 20
158.6500053205264
 30
0.0
 11
120.977789153771
 21
158.6500053205264
 31
0.0
  0
LINE
  5
218
330
6F
100
AcDbEntity
  8
_4-C_ハッチ
  6
Continuous
 62
    83
100
AcDbLine
 10
115.5527891537709
 20
159.4000053205264
 30
0.0
 11
120.977789153771
 21
159.4000053205264
 31
0.0
  0
LINE
  5
219
330
6F
100
AcDbEntity
  8
_4-C_ハッチ
  6
Continuous
 62
    83
100
AcDbLine
 10
115.5527891537709
 20
160.1500053205264
 30
0.0
 11
120.977789153771
 21
160.1500053205264
 31
0.0
  0
LINE
  5
21A
330
6F
100
AcDbEntity
  8
_4-C_ハッチ
  6
Continuous
 62
    83
100
AcDbLine
 10
115.5527891537709
 20
160.9000053205264
 30
0.0
 11
120.977789153771
 21
160.9000053205264
 31
0.0
  0
LINE
  5
21B
330
6F
100
AcDbEntity
  8
_4-C_ハッチ
  6
Continuous
 62
    83
100
AcDbLine
 10
115.5527891537709
 20
161.6500053205264
 30
0.0
 11
120.977789153771
 21
161.6500053205264
 31
0.0
  0
LINE
  5
21C
330
6F
100
AcDbEntity
  8
_4-C_ハッチ
  6
Continuous
 62
    83
100
AcDbLine
 10
115.5527891537709
 20
162.4000053205264
 30
0.0
 11
120.977789153771
 21
162.4000053205264
 31
0.0
  0
LINE
  5
21D
330
6F
100
AcDbEntity
  8
_4-C_ハッチ
  6
Continuous
 62
    83
100
AcDbLine
 10
115.5527891537709
 20
163.1500053205264
 30
0.0
 11
120.977789153771
 21
163.1500053205264
 31
0.0
  0
LINE
  5
21E
330
6F
100
AcDbEntity
  8
_4-C_ハッチ
  6
Continuous
 62
    83
100
AcDbLine
 10
115.5527891537709
 20
163.9000053205264
 30
0.0
 11
120.977789153771
 21
163.9000053205264
 31
0.0
  0
LINE
  5
21F
330
6F
100
AcDbEntity
  8
_4-C_ハッチ
  6
Continuous
 62
    83
100
AcDbLine
 10
115.5527891537709
 20
164.6500053205264
 30
0.0
 11
120.977789153771
 21
164.6500053205264
 31
0.0
  0
LINE
  5
220
330
6F
100
AcDbEntity
  8
_4-C_ハッチ
  6
Continuous
 62
    83
100
AcDbLine
 10
115.5527891537709
 20
165.4000053205264
 30
0.0
 11
120.977789153771
 21
165.4000053205264
 31
0.0
  0
LINE
  5
221
330
6F
100
AcDbEntity
  8
_4-C_ハッチ
  6
Continuous
 62
    83
100
AcDbLine
 10
115.5527891537709
 20
166.1500053205264
 30
0.0
 11
120.977789153771
 21
166.1500053205264
 31
0.0
  0
LINE
  5
222
330
6F
100
AcDbEntity
  8
_4-C_ハッチ
  6
Continuous
 62
    83
100
AcDbLine
 10
115.5527891537709
 20
166.9000053205264
 30
0.0
 11
120.977789153771
 21
166.9000053205264
 31
0.0
  0
LINE
  5
223
330
6F
100
AcDbEntity
  8
_4-C_ハッチ
  6
Continuous
 62
    83
100
AcDbLine
 10
115.5527891537709
 20
167.6500053205264
 30
0.0
 11
120.977789153771
 21
167.6500053205264
 31
0.0
  0
LINE
  5
224
330
6F
100
AcDbEntity
  8
_4-C_ハッチ
  6
Continuous
 62
    83
100
AcDbLine
 10
115.5527891537709
 20
168.4000053205264
 30
0.0
 11
120.977789153771
 21
168.4000053205264
 31
0.0
  0
LINE
  5
225
330
6F
100
AcDbEntity
  8
_4-C_ハッチ
  6
Continuous
 62
    83
100
AcDbLine
 10
115.5527891537709
 20
169.1500053205264
 30
0.0
 11
120.977789153771
 21
169.1500053205264
 31
0.0
  0
LINE
  5
226
330
6F
100
AcDbEntity
  8
_4-C_ハッチ
  6
Continuous
 62
    83
100
AcDbLine
 10
115.5527891537709
 20
169.9000053205264
 30
0.0
 11
120.977789153771
 21
169.9000053205264
 31
0.0
  0
LINE
  5
227
330
6F
100
AcDbEntity
  8
_4-C_ハッチ
  6
Continuous
 62
    83
100
AcDbLine
 10
115.5527891537709
 20
170.6500053205264
 30
0.0
 11
120.977789153771
 21
170.6500053205264
 31
0.0
  0
LINE
  5
228
330
6F
100
AcDbEntity
  8
_4-C_ハッチ
  6
Continuous
 62
    83
100
AcDbLine
 10
115.5527891537709
 20
171.4000053205264
 30
0.0
 11
120.977789153771
 21
171.4000053205264
 31
0.0
  0
LINE
  5
229
330
6F
100
AcDbEntity
  8
_4-C_ハッチ
  6
Continuous
 62
    83
100
AcDbLine
 10
115.5527891537709
 20
172.1500053205264
 30
0.0
 11
120.977789153771
 21
172.1500053205264
 31
0.0
  0
LINE
  5
22A
330
6F
100
AcDbEntity
  8
_4-C_ハッチ
  6
Continuous
 62
    83
100
AcDbLine
 10
115.5527891537709
 20
172.9000053205264
 30
0.0
 11
120.977789153771
 21
172.9000053205264
 31
0.0
  0
LINE
  5
22B
330
6F
100
AcDbEntity
  8
_4-C_ハッチ
  6
Continuous
 62
    83
100
AcDbLine
 10
115.5527891537709
 20
173.6500053205264
 30
0.0
 11
120.977789153771
 21
173.6500053205264
 31
0.0
  0
LINE
  5
22C
330
6F
100
AcDbEntity
  8
_4-C_ハッチ
  6
Continuous
 62
    83
100
AcDbLine
 10
115.5527891537709
 20
174.4000053205264
 30
0.0
 11
120.977789153771
 21
174.4000053205264
 31
0.0
  0
LINE
  5
22D
330
6F
100
AcDbEntity
  8
_4-C_ハッチ
  6
Continuous
 62
    83
100
AcDbLine
 10
115.5527891537709
 20
175.1500053205264
 30
0.0
 11
120.977789153771
 21
175.1500053205264
 31
0.0
  0
LINE
  5
22E
330
6F
100
AcDbEntity
  8
_4-C_ハッチ
  6
Continuous
 62
    83
100
AcDbLine
 10
115.5527891537709
 20
175.9000053205264
 30
0.0
 11
120.977789153771
 21
175.9000053205264
 31
0.0
  0
LINE
  5
22F
330
6F
100
AcDbEntity
  8
_4-C_ハッチ
  6
Continuous
 62
    83
100
AcDbLine
 10
115.5527891537709
 20
176.6500053205264
 30
0.0
 11
120.977789153771
 21
176.6500053205264
 31
0.0
  0
LINE
  5
230
330
6F
100
AcDbEntity
  8
_4-C_ハッチ
  6
Continuous
 62
    83
100
AcDbLine
 10
115.5527891537709
 20
177.4000053205264
 30
0.0
 11
120.977789153771
 21
177.4000053205264
 31
0.0
  0
LINE
  5
231
330
6F
100
AcDbEntity
  8
_4-C_ハッチ
  6
Continuous
 62
    83
100
AcDbLine
 10
115.5527891537709
 20
178.1500053205264
 30
0.0
 11
120.977789153771
 21
178.1500053205264
 31
0.0
  0
LINE
  5
232
330
6F
100
AcDbEntity
  8
_4-C_ハッチ
  6
Continuous
 62
    83
100
AcDbLine
 10
115.5527891537709
 20
178.9000053205264
 30
0.0
 11
120.977789153771
 21
178.9000053205264
 31
0.0
  0
LINE
  5
233
330
6F
100
AcDbEntity
  8
_4-C_ハッチ
  6
Continuous
 62
    83
100
AcDbLine
 10
115.5527891537709
 20
179.6500053205264
 30
0.0
 11
120.977789153771
 21
179.6500053205264
 31
0.0
  0
LINE
  5
234
330
6F
100
AcDbEntity
  8
_4-C_ハッチ
  6
Continuous
 62
    83
100
AcDbLine
 10
115.5527891537709
 20
180.4000053205264
 30
0.0
 11
120.977789153771
 21
180.4000053205264
 31
0.0
  0
LINE
  5
235
330
6F
100
AcDbEntity
  8
_4-C_ハッチ
  6
Continuous
 62
    83
100
AcDbLine
 10
115.5527891537709
 20
181.1500053205264
 30
0.0
 11
120.977789153771
 21
181.1500053205264
 31
0.0
  0
LINE
  5
236
330
6F
100
AcDbEntity
  8
_4-C_ハッチ
  6
Continuous
 62
    83
100
AcDbLine
 10
115.5527891537709
 20
181.9000053205264
 30
0.0
 11
120.977789153771
 21
181.9000053205264
 31
0.0
  0
LINE
  5
237
330
6F
100
AcDbEntity
  8
_4-C_ハッチ
  6
Continuous
 62
    83
100
AcDbLine
 10
115.5527891537709
 20
182.6500053205264
 30
0.0
 11
120.977789153771
 21
182.6500053205264
 31
0.0
  0
LINE
  5
238
330
6F
100
AcDbEntity
  8
_4-C_ハッチ
  6
Continuous
 62
    83
100
AcDbLine
 10
115.5527891537709
 20
183.4000053205264
 30
0.0
 11
120.977789153771
 21
183.4000053205264
 31
0.0
  0
LINE
  5
239
330
6F
100
AcDbEntity
  8
_4-C_ハッチ
  6
Continuous
 62
    83
100
AcDbLine
 10
115.5527891537709
 20
184.1500053205264
 30
0.0
 11
120.977789153771
 21
184.1500053205264
 31
0.0
  0
LINE
  5
23A
330
6F
100
AcDbEntity
  8
_4-C_ハッチ
  6
Continuous
 62
    83
100
AcDbLine
 10
115.5527891537709
 20
184.9000053205264
 30
0.0
 11
120.977789153771
 21
184.9000053205264
 31
0.0
  0
LINE
  5
23B
330
6F
100
AcDbEntity
  8
_4-C_ハッチ
  6
Continuous
 62
    83
100
AcDbLine
 10
115.5527891537709
 20
185.6500053205264
 30
0.0
 11
120.977789153771
 21
185.6500053205264
 31
0.0
  0
LINE
  5
23C
330
6F
100
AcDbEntity
  8
_4-C_ハッチ
  6
Continuous
 62
    83
100
AcDbLine
 10
115.5527891537709
 20
186.4000053205264
 30
0.0
 11
120.977789153771
 21
186.4000053205264
 31
0.0
  0
LINE
  5
23D
330
6F
100
AcDbEntity
  8
_4-C_ハッチ
  6
Continuous
 62
    83
100
AcDbLine
 10
115.5527891537709
 20
187.1500053205264
 30
0.0
 11
120.977789153771
 21
187.1500053205264
 31
0.0
  0
LINE
  5
23E
330
6F
100
AcDbEntity
  8
_4-C_ハッチ
  6
Continuous
 62
    83
100
AcDbLine
 10
115.5527891537709
 20
187.9000053205264
 30
0.0
 11
120.977789153771
 21
187.9000053205264
 31
0.0
  0
LINE
  5
23F
330
6F
100
AcDbEntity
  8
_4-C_ハッチ
  6
Continuous
 62
    83
100
AcDbLine
 10
115.5527891537709
 20
188.6500053205264
 30
0.0
 11
120.977789153771
 21
188.6500053205264
 31
0.0
  0
LINE
  5
240
330
6F
100
AcDbEntity
  8
_4-C_ハッチ
  6
Continuous
 62
    83
100
AcDbLine
 10
115.5527891537709
 20
189.4000053205264
 30
0.0
 11
120.977789153771
 21
189.4000053205264
 31
0.0
  0
LINE
  5
241
330
6F
100
AcDbEntity
  8
_4-C_ハッチ
  6
Continuous
 62
    83
100
AcDbLine
 10
61.4999999999697
 20
155.4977272727272
 30
0.0
 11
61.4999999999697
 21
172.4227272727272
 31
0.0
  0
LINE
  5
242
330
6F
100
AcDbEntity
  8
_4-C_ハッチ
  6
Continuous
 62
    83
100
AcDbLine
 10
61.4999999999697
 20
173.9227272727272
 30
0.0
 11
61.4999999999697
 21
190.8477272727272
 31
0.0
  0
LINE
  5
243
330
6F
100
AcDbEntity
  8
_4-C_ハッチ
  6
Continuous
 62
    83
100
AcDbLine
 10
113.9999999999697
 20
155.4977272727272
 30
0.0
 11
113.9999999999697
 21
172.4227272727272
 31
0.0
  0
LINE
  5
244
330
6F
100
AcDbEntity
  8
_4-C_ハッチ
  6
Continuous
 62
    83
100
AcDbLine
 10
113.9999999999697
 20
173.9227272727272
 30
0.0
 11
113.9999999999697
 21
190.8477272727272
 31
0.0
  0
LINE
  5
245
330
6F
100
AcDbEntity
  8
_4-C_ハッチ
  6
Continuous
 62
    83
100
AcDbLine
 10
113.2499999999697
 20
155.4977272727272
 30
0.0
 11
113.2499999999697
 21
172.4227272727272
 31
0.0
  0
LINE
  5
246
330
6F
100
AcDbEntity
  8
_4-C_ハッチ
  6
Continuous
 62
    83
100
AcDbLine
 10
113.2499999999697
 20
173.9227272727272
 30
0.0
 11
113.2499999999697
 21
190.8477272727272
 31
0.0
  0
LINE
  5
247
330
6F
100
AcDbEntity
  8
_4-C_ハッチ
  6
Continuous
 62
    83
100
AcDbLine
 10
112.4999999999697
 20
155.4977272727272
 30
0.0
 11
112.4999999999697
 21
172.4227272727272
 31
0.0
  0
LINE
  5
248
330
6F
100
AcDbEntity
  8
_4-C_ハッチ
  6
Continuous
 62
    83
100
AcDbLine
 10
112.4999999999697
 20
173.9227272727272
 30
0.0
 11
112.4999999999697
 21
190.8477272727272
 31
0.0
  0
LINE
  5
249
330
6F
100
AcDbEntity
  8
_4-C_ハッチ
  6
Continuous
 62
    83
100
AcDbLine
 10
111.7499999999697
 20
155.4977272727272
 30
0.0
 11
111.7499999999697
 21
172.4227272727272
 31
0.0
  0
LINE
  5
24A
330
6F
100
AcDbEntity
  8
_4-C_ハッチ
  6
Continuous
 62
    83
100
AcDbLine
 10
111.7499999999697
 20
173.9227272727272
 30
0.0
 11
111.7499999999697
 21
190.8477272727272
 31
0.0
  0
LINE
  5
24B
330
6F
100
AcDbEntity
  8
_4-C_ハッチ
  6
Continuous
 62
    83
100
AcDbLine
 10
110.9999999999697
 20
155.4977272727272
 30
0.0
 11
110.9999999999697
 21
172.4227272727272
 31
0.0
  0
LINE
  5
24C
330
6F
100
AcDbEntity
  8
_4-C_ハッチ
  6
Continuous
 62
    83
100
AcDbLine
 10
110.9999999999697
 20
173.9227272727272
 30
0.0
 11
110.9999999999697
 21
190.8477272727272
 31
0.0
  0
LINE
  5
24D
330
6F
100
AcDbEntity
  8
_4-C_ハッチ
  6
Continuous
 62
    83
100
AcDbLine
 10
110.2499999999697
 20
155.4977272727272
 30
0.0
 11
110.2499999999697
 21
172.4227272727272
 31
0.0
  0
LINE
  5
24E
330
6F
100
AcDbEntity
  8
_4-C_ハッチ
  6
Continuous
 62
    83
100
AcDbLine
 10
110.2499999999697
 20
173.9227272727272
 30
0.0
 11
110.2499999999697
 21
190.8477272727272
 31
0.0
  0
LINE
  5
24F
330
6F
100
AcDbEntity
  8
_4-C_ハッチ
  6
Continuous
 62
    83
100
AcDbLine
 10
109.4999999999697
 20
155.4977272727272
 30
0.0
 11
109.4999999999697
 21
172.4227272727272
 31
0.0
  0
LINE
  5
250
330
6F
100
AcDbEntity
  8
_4-C_ハッチ
  6
Continuous
 62
    83
100
AcDbLine
 10
109.4999999999697
 20
173.9227272727272
 30
0.0
 11
109.4999999999697
 21
190.8477272727272
 31
0.0
  0
LINE
  5
251
330
6F
100
AcDbEntity
  8
_4-C_ハッチ
  6
Continuous
 62
    83
100
AcDbLine
 10
108.7499999999697
 20
155.4977272727272
 30
0.0
 11
108.7499999999697
 21
172.4227272727272
 31
0.0
  0
LINE
  5
252
330
6F
100
AcDbEntity
  8
_4-C_ハッチ
  6
Continuous
 62
    83
100
AcDbLine
 10
108.7499999999697
 20
173.9227272727272
 30
0.0
 11
108.7499999999697
 21
190.8477272727272
 31
0.0
  0
LINE
  5
253
330
6F
100
AcDbEntity
  8
_4-C_ハッチ
  6
Continuous
 62
    83
100
AcDbLine
 10
107.9999999999697
 20
155.4977272727272
 30
0.0
 11
107.9999999999697
 21
172.4227272727272
 31
0.0
  0
LINE
  5
254
330
6F
100
AcDbEntity
  8
_4-C_ハッチ
  6
Continuous
 62
    83
100
AcDbLine
 10
107.9999999999697
 20
173.9227272727272
 30
0.0
 11
107.9999999999697
 21
190.8477272727272
 31
0.0
  0
LINE
  5
255
330
6F
100
AcDbEntity
  8
_4-C_ハッチ
  6
Continuous
 62
    83
100
AcDbLine
 10
107.2499999999697
 20
155.4977272727272
 30
0.0
 11
107.2499999999697
 21
172.4227272727272
 31
0.0
  0
LINE
  5
256
330
6F
100
AcDbEntity
  8
_4-C_ハッチ
  6
Continuous
 62
    83
100
AcDbLine
 10
107.2499999999697
 20
173.9227272727272
 30
0.0
 11
107.2499999999697
 21
190.8477272727272
 31
0.0
  0
LINE
  5
257
330
6F
100
AcDbEntity
  8
_4-C_ハッチ
  6
Continuous
 62
    83
100
AcDbLine
 10
106.4999999999697
 20
155.4977272727272
 30
0.0
 11
106.4999999999697
 21
172.4227272727272
 31
0.0
  0
LINE
  5
258
330
6F
100
AcDbEntity
  8
_4-C_ハッチ
  6
Continuous
 62
    83
100
AcDbLine
 10
106.4999999999697
 20
173.9227272727272
 30
0.0
 11
106.4999999999697
 21
190.8477272727272
 31
0.0
  0
LINE
  5
259
330
6F
100
AcDbEntity
  8
_4-C_ハッチ
  6
Continuous
 62
    83
100
AcDbLine
 10
105.7499999999697
 20
155.4977272727272
 30
0.0
 11
105.7499999999697
 21
172.4227272727272
 31
0.0
  0
LINE
  5
25A
330
6F
100
AcDbEntity
  8
_4-C_ハッチ
  6
Continuous
 62
    83
100
AcDbLine
 10
105.7499999999697
 20
173.9227272727272
 30
0.0
 11
105.7499999999697
 21
190.8477272727272
 31
0.0
  0
LINE
  5
25B
330
6F
100
AcDbEntity
  8
_4-C_ハッチ
  6
Continuous
 62
    83
100
AcDbLine
 10
104.9999999999697
 20
155.4977272727272
 30
0.0
 11
104.9999999999697
 21
172.4227272727272
 31
0.0
  0
LINE
  5
25C
330
6F
100
AcDbEntity
  8
_4-C_ハッチ
  6
Continuous
 62
    83
100
AcDbLine
 10
104.9999999999697
 20
173.9227272727272
 30
0.0
 11
104.9999999999697
 21
190.8477272727272
 31
0.0
  0
LINE
  5
25D
330
6F
100
AcDbEntity
  8
_4-C_ハッチ
  6
Continuous
 62
    83
100
AcDbLine
 10
104.2499999999697
 20
155.4977272727272
 30
0.0
 11
104.2499999999697
 21
172.4227272727272
 31
0.0
  0
LINE
  5
25E
330
6F
100
AcDbEntity
  8
_4-C_ハッチ
  6
Continuous
 62
    83
100
AcDbLine
 10
104.2499999999697
 20
173.9227272727272
 30
0.0
 11
104.2499999999697
 21
190.8477272727272
 31
0.0
  0
LINE
  5
25F
330
6F
100
AcDbEntity
  8
_4-C_ハッチ
  6
Continuous
 62
    83
100
AcDbLine
 10
103.4999999999697
 20
155.4977272727272
 30
0.0
 11
103.4999999999697
 21
172.4227272727272
 31
0.0
  0
LINE
  5
260
330
6F
100
AcDbEntity
  8
_4-C_ハッチ
  6
Continuous
 62
    83
100
AcDbLine
 10
103.4999999999697
 20
173.9227272727272
 30
0.0
 11
103.4999999999697
 21
190.8477272727272
 31
0.0
  0
LINE
  5
261
330
6F
100
AcDbEntity
  8
_4-C_ハッチ
  6
Continuous
 62
    83
100
AcDbLine
 10
102.7499999999697
 20
155.4977272727272
 30
0.0
 11
102.7499999999697
 21
172.4227272727272
 31
0.0
  0
LINE
  5
262
330
6F
100
AcDbEntity
  8
_4-C_ハッチ
  6
Continuous
 62
    83
100
AcDbLine
 10
102.7499999999697
 20
173.9227272727272
 30
0.0
 11
102.7499999999697
 21
190.8477272727272
 31
0.0
  0
LINE
  5
263
330
6F
100
AcDbEntity
  8
_4-C_ハッチ
  6
Continuous
 62
    83
100
AcDbLine
 10
101.9999999999697
 20
155.4977272727272
 30
0.0
 11
101.9999999999697
 21
172.4227272727272
 31
0.0
  0
LINE
  5
264
330
6F
100
AcDbEntity
  8
_4-C_ハッチ
  6
Continuous
 62
    83
100
AcDbLine
 10
101.9999999999697
 20
173.9227272727272
 30
0.0
 11
101.9999999999697
 21
190.8477272727272
 31
0.0
  0
LINE
  5
265
330
6F
100
AcDbEntity
  8
_4-C_ハッチ
  6
Continuous
 62
    83
100
AcDbLine
 10
101.2499999999697
 20
155.4977272727272
 30
0.0
 11
101.2499999999697
 21
172.4227272727272
 31
0.0
  0
LINE
  5
266
330
6F
100
AcDbEntity
  8
_4-C_ハッチ
  6
Continuous
 62
    83
100
AcDbLine
 10
101.2499999999697
 20
173.9227272727272
 30
0.0
 11
101.2499999999697
 21
190.8477272727272
 31
0.0
  0
LINE
  5
267
330
6F
100
AcDbEntity
  8
_4-C_ハッチ
  6
Continuous
 62
    83
100
AcDbLine
 10
100.4999999999697
 20
155.4977272727272
 30
0.0
 11
100.4999999999697
 21
172.4227272727272
 31
0.0
  0
LINE
  5
268
330
6F
100
AcDbEntity
  8
_4-C_ハッチ
  6
Continuous
 62
    83
100
AcDbLine
 10
100.4999999999697
 20
173.9227272727272
 30
0.0
 11
100.4999999999697
 21
190.8477272727272
 31
0.0
  0
LINE
  5
269
330
6F
100
AcDbEntity
  8
_4-C_ハッチ
  6
Continuous
 62
    83
100
AcDbLine
 10
99.74999999996972
 20
155.4977272727272
 30
0.0
 11
99.74999999996972
 21
172.4227272727272
 31
0.0
  0
LINE
  5
26A
330
6F
100
AcDbEntity
  8
_4-C_ハッチ
  6
Continuous
 62
    83
100
AcDbLine
 10
99.74999999996972
 20
173.9227272727272
 30
0.0
 11
99.74999999996972
 21
190.8477272727272
 31
0.0
  0
LINE
  5
26B
330
6F
100
AcDbEntity
  8
_4-C_ハッチ
  6
Continuous
 62
    83
100
AcDbLine
 10
98.99999999996971
 20
155.4977272727272
 30
0.0
 11
98.99999999996971
 21
172.4227272727272
 31
0.0
  0
LINE
  5
26C
330
6F
100
AcDbEntity
  8
_4-C_ハッチ
  6
Continuous
 62
    83
100
AcDbLine
 10
98.99999999996971
 20
173.9227272727272
 30
0.0
 11
98.99999999996971
 21
190.8477272727272
 31
0.0
  0
LINE
  5
26D
330
6F
100
AcDbEntity
  8
_4-C_ハッチ
  6
Continuous
 62
    83
100
AcDbLine
 10
98.24999999996972
 20
155.4977272727272
 30
0.0
 11
98.24999999996972
 21
172.4227272727272
 31
0.0
  0
LINE
  5
26E
330
6F
100
AcDbEntity
  8
_4-C_ハッチ
  6
Continuous
 62
    83
100
AcDbLine
 10
98.24999999996972
 20
173.9227272727272
 30
0.0
 11
98.24999999996972
 21
190.8477272727272
 31
0.0
  0
LINE
  5
26F
330
6F
100
AcDbEntity
  8
_4-C_ハッチ
  6
Continuous
 62
    83
100
AcDbLine
 10
97.49999999996973
 20
155.4977272727272
 30
0.0
 11
97.49999999996973
 21
172.4227272727272
 31
0.0
  0
LINE
  5
270
330
6F
100
AcDbEntity
  8
_4-C_ハッチ
  6
Continuous
 62
    83
100
AcDbLine
 10
97.49999999996973
 20
173.9227272727272
 30
0.0
 11
97.49999999996973
 21
190.8477272727272
 31
0.0
  0
LINE
  5
271
330
6F
100
AcDbEntity
  8
_4-C_ハッチ
  6
Continuous
 62
    83
100
AcDbLine
 10
96.74999999996972
 20
155.4977272727272
 30
0.0
 11
96.74999999996972
 21
172.4227272727272
 31
0.0
  0
LINE
  5
272
330
6F
100
AcDbEntity
  8
_4-C_ハッチ
  6
Continuous
 62
    83
100
AcDbLine
 10
96.74999999996972
 20
173.9227272727272
 30
0.0
 11
96.74999999996972
 21
190.8477272727272
 31
0.0
  0
LINE
  5
273
330
6F
100
AcDbEntity
  8
_4-C_ハッチ
  6
Continuous
 62
    83
100
AcDbLine
 10
95.99999999996972
 20
155.4977272727272
 30
0.0
 11
95.99999999996972
 21
172.4227272727272
 31
0.0
  0
LINE
  5
274
330
6F
100
AcDbEntity
  8
_4-C_ハッチ
  6
Continuous
 62
    83
100
AcDbLine
 10
95.99999999996972
 20
173.9227272727272
 30
0.0
 11
95.99999999996972
 21
190.8477272727272
 31
0.0
  0
LINE
  5
275
330
6F
100
AcDbEntity
  8
_4-C_ハッチ
  6
Continuous
 62
    83
100
AcDbLine
 10
95.24999999996971
 20
155.4977272727272
 30
0.0
 11
95.24999999996971
 21
172.4227272727272
 31
0.0
  0
LINE
  5
276
330
6F
100
AcDbEntity
  8
_4-C_ハッチ
  6
Continuous
 62
    83
100
AcDbLine
 10
95.24999999996971
 20
173.9227272727272
 30
0.0
 11
95.24999999996971
 21
190.8477272727272
 31
0.0
  0
LINE
  5
277
330
6F
100
AcDbEntity
  8
_4-C_ハッチ
  6
Continuous
 62
    83
100
AcDbLine
 10
94.49999999996972
 20
155.4977272727272
 30
0.0
 11
94.49999999996972
 21
172.4227272727272
 31
0.0
  0
LINE
  5
278
330
6F
100
AcDbEntity
  8
_4-C_ハッチ
  6
Continuous
 62
    83
100
AcDbLine
 10
94.49999999996972
 20
173.9227272727272
 30
0.0
 11
94.49999999996972
 21
190.8477272727272
 31
0.0
  0
LINE
  5
279
330
6F
100
AcDbEntity
  8
_4-C_ハッチ
  6
Continuous
 62
    83
100
AcDbLine
 10
93.74999999996971
 20
155.4977272727272
 30
0.0
 11
93.74999999996971
 21
172.4227272727272
 31
0.0
  0
LINE
  5
27A
330
6F
100
AcDbEntity
  8
_4-C_ハッチ
  6
Continuous
 62
    83
100
AcDbLine
 10
93.74999999996971
 20
173.9227272727272
 30
0.0
 11
93.74999999996971
 21
190.8477272727272
 31
0.0
  0
LINE
  5
27B
330
6F
100
AcDbEntity
  8
_4-C_ハッチ
  6
Continuous
 62
    83
100
AcDbLine
 10
92.99999999996972
 20
155.4977272727272
 30
0.0
 11
92.99999999996972
 21
172.4227272727272
 31
0.0
  0
LINE
  5
27C
330
6F
100
AcDbEntity
  8
_4-C_ハッチ
  6
Continuous
 62
    83
100
AcDbLine
 10
92.99999999996972
 20
173.9227272727272
 30
0.0
 11
92.99999999996972
 21
190.8477272727272
 31
0.0
  0
LINE
  5
27D
330
6F
100
AcDbEntity
  8
_4-C_ハッチ
  6
Continuous
 62
    83
100
AcDbLine
 10
92.24999999996972
 20
155.4977272727272
 30
0.0
 11
92.24999999996972
 21
172.4227272727272
 31
0.0
  0
LINE
  5
27E
330
6F
100
AcDbEntity
  8
_4-C_ハッチ
  6
Continuous
 62
    83
100
AcDbLine
 10
92.24999999996972
 20
173.9227272727272
 30
0.0
 11
92.24999999996972
 21
190.8477272727272
 31
0.0
  0
LINE
  5
27F
330
6F
100
AcDbEntity
  8
_4-C_ハッチ
  6
Continuous
 62
    83
100
AcDbLine
 10
91.49999999996971
 20
155.4977272727272
 30
0.0
 11
91.49999999996971
 21
172.4227272727272
 31
0.0
  0
LINE
  5
280
330
6F
100
AcDbEntity
  8
_4-C_ハッチ
  6
Continuous
 62
    83
100
AcDbLine
 10
91.49999999996971
 20
173.9227272727272
 30
0.0
 11
91.49999999996971
 21
190.8477272727272
 31
0.0
  0
LINE
  5
281
330
6F
100
AcDbEntity
  8
_4-C_ハッチ
  6
Continuous
 62
    83
100
AcDbLine
 10
90.74999999996972
 20
155.4977272727272
 30
0.0
 11
90.74999999996972
 21
172.4227272727272
 31
0.0
  0
LINE
  5
282
330
6F
100
AcDbEntity
  8
_4-C_ハッチ
  6
Continuous
 62
    83
100
AcDbLine
 10
90.74999999996972
 20
173.9227272727272
 30
0.0
 11
90.74999999996972
 21
190.8477272727272
 31
0.0
  0
LINE
  5
283
330
6F
100
AcDbEntity
  8
_4-C_ハッチ
  6
Continuous
 62
    83
100
AcDbLine
 10
89.99999999996971
 20
155.4977272727272
 30
0.0
 11
89.99999999996971
 21
172.4227272727272
 31
0.0
  0
LINE
  5
284
330
6F
100
AcDbEntity
  8
_4-C_ハッチ
  6
Continuous
 62
    83
100
AcDbLine
 10
89.99999999996971
 20
173.9227272727272
 30
0.0
 11
89.99999999996971
 21
190.8477272727272
 31
0.0
  0
LINE
  5
285
330
6F
100
AcDbEntity
  8
_4-C_ハッチ
  6
Continuous
 62
    83
100
AcDbLine
 10
89.24999999996972
 20
155.4977272727272
 30
0.0
 11
89.24999999996972
 21
172.4227272727272
 31
0.0
  0
LINE
  5
286
330
6F
100
AcDbEntity
  8
_4-C_ハッチ
  6
Continuous
 62
    83
100
AcDbLine
 10
89.24999999996972
 20
173.9227272727272
 30
0.0
 11
89.24999999996972
 21
190.8477272727272
 31
0.0
  0
LINE
  5
287
330
6F
100
AcDbEntity
  8
_4-C_ハッチ
  6
Continuous
 62
    83
100
AcDbLine
 10
88.49999999996972
 20
155.4977272727272
 30
0.0
 11
88.49999999996972
 21
172.4227272727272
 31
0.0
  0
LINE
  5
288
330
6F
100
AcDbEntity
  8
_4-C_ハッチ
  6
Continuous
 62
    83
100
AcDbLine
 10
88.49999999996972
 20
173.9227272727272
 30
0.0
 11
88.49999999996972
 21
190.8477272727272
 31
0.0
  0
LINE
  5
289
330
6F
100
AcDbEntity
  8
_4-C_ハッチ
  6
Continuous
 62
    83
100
AcDbLine
 10
87.74999999996971
 20
155.4977272727272
 30
0.0
 11
87.74999999996971
 21
172.4227272727272
 31
0.0
  0
LINE
  5
28A
330
6F
100
AcDbEntity
  8
_4-C_ハッチ
  6
Continuous
 62
    83
100
AcDbLine
 10
87.74999999996971
 20
173.9227272727272
 30
0.0
 11
87.74999999996971
 21
190.8477272727272
 31
0.0
  0
LINE
  5
28B
330
6F
100
AcDbEntity
  8
_4-C_ハッチ
  6
Continuous
 62
    83
100
AcDbLine
 10
86.99999999996972
 20
155.4977272727272
 30
0.0
 11
86.99999999996972
 21
172.4227272727272
 31
0.0
  0
LINE
  5
28C
330
6F
100
AcDbEntity
  8
_4-C_ハッチ
  6
Continuous
 62
    83
100
AcDbLine
 10
86.99999999996972
 20
173.9227272727272
 30
0.0
 11
86.99999999996972
 21
190.8477272727272
 31
0.0
  0
LINE
  5
28D
330
6F
100
AcDbEntity
  8
_4-C_ハッチ
  6
Continuous
 62
    83
100
AcDbLine
 10
86.24999999996971
 20
155.4977272727272
 30
0.0
 11
86.24999999996971
 21
172.4227272727272
 31
0.0
  0
LINE
  5
28E
330
6F
100
AcDbEntity
  8
_4-C_ハッチ
  6
Continuous
 62
    83
100
AcDbLine
 10
86.24999999996971
 20
173.9227272727272
 30
0.0
 11
86.24999999996971
 21
190.8477272727272
 31
0.0
  0
LINE
  5
28F
330
6F
100
AcDbEntity
  8
_4-C_ハッチ
  6
Continuous
 62
    83
100
AcDbLine
 10
85.4999999999697
 20
155.4977272727272
 30
0.0
 11
85.4999999999697
 21
172.4227272727272
 31
0.0
  0
LINE
  5
290
330
6F
100
AcDbEntity
  8
_4-C_ハッチ
  6
Continuous
 62
    83
100
AcDbLine
 10
85.4999999999697
 20
173.9227272727272
 30
0.0
 11
85.4999999999697
 21
190.8477272727272
 31
0.0
  0
LINE
  5
291
330
6F
100
AcDbEntity
  8
_4-C_ハッチ
  6
Continuous
 62
    83
100
AcDbLine
 10
84.7499999999697
 20
155.4977272727272
 30
0.0
 11
84.7499999999697
 21
172.4227272727272
 31
0.0
  0
LINE
  5
292
330
6F
100
AcDbEntity
  8
_4-C_ハッチ
  6
Continuous
 62
    83
100
AcDbLine
 10
84.7499999999697
 20
173.9227272727272
 30
0.0
 11
84.7499999999697
 21
190.8477272727272
 31
0.0
  0
LINE
  5
293
330
6F
100
AcDbEntity
  8
_4-C_ハッチ
  6
Continuous
 62
    83
100
AcDbLine
 10
83.99999999996969
 20
155.4977272727272
 30
0.0
 11
83.99999999996969
 21
172.4227272727272
 31
0.0
  0
LINE
  5
294
330
6F
100
AcDbEntity
  8
_4-C_ハッチ
  6
Continuous
 62
    83
100
AcDbLine
 10
83.99999999996969
 20
173.9227272727272
 30
0.0
 11
83.99999999996969
 21
190.8477272727272
 31
0.0
  0
LINE
  5
295
330
6F
100
AcDbEntity
  8
_4-C_ハッチ
  6
Continuous
 62
    83
100
AcDbLine
 10
83.2499999999697
 20
155.4977272727272
 30
0.0
 11
83.2499999999697
 21
172.4227272727272
 31
0.0
  0
LINE
  5
296
330
6F
100
AcDbEntity
  8
_4-C_ハッチ
  6
Continuous
 62
    83
100
AcDbLine
 10
83.2499999999697
 20
173.9227272727272
 30
0.0
 11
83.2499999999697
 21
190.8477272727272
 31
0.0
  0
LINE
  5
297
330
6F
100
AcDbEntity
  8
_4-C_ハッチ
  6
Continuous
 62
    83
100
AcDbLine
 10
82.49999999996971
 20
155.4977272727272
 30
0.0
 11
82.49999999996971
 21
172.4227272727272
 31
0.0
  0
LINE
  5
298
330
6F
100
AcDbEntity
  8
_4-C_ハッチ
  6
Continuous
 62
    83
100
AcDbLine
 10
82.49999999996971
 20
173.9227272727272
 30
0.0
 11
82.49999999996971
 21
190.8477272727272
 31
0.0
  0
LINE
  5
299
330
6F
100
AcDbEntity
  8
_4-C_ハッチ
  6
Continuous
 62
    83
100
AcDbLine
 10
81.7499999999697
 20
155.4977272727272
 30
0.0
 11
81.7499999999697
 21
172.4227272727272
 31
0.0
  0
LINE
  5
29A
330
6F
100
AcDbEntity
  8
_4-C_ハッチ
  6
Continuous
 62
    83
100
AcDbLine
 10
81.7499999999697
 20
173.9227272727272
 30
0.0
 11
81.7499999999697
 21
190.8477272727272
 31
0.0
  0
LINE
  5
29B
330
6F
100
AcDbEntity
  8
_4-C_ハッチ
  6
Continuous
 62
    83
100
AcDbLine
 10
80.9999999999697
 20
155.4977272727272
 30
0.0
 11
80.9999999999697
 21
172.4227272727272
 31
0.0
  0
LINE
  5
29C
330
6F
100
AcDbEntity
  8
_4-C_ハッチ
  6
Continuous
 62
    83
100
AcDbLine
 10
80.9999999999697
 20
173.9227272727272
 30
0.0
 11
80.9999999999697
 21
190.8477272727272
 31
0.0
  0
LINE
  5
29D
330
6F
100
AcDbEntity
  8
_4-C_ハッチ
  6
Continuous
 62
    83
100
AcDbLine
 10
80.24999999996969
 20
155.4977272727272
 30
0.0
 11
80.24999999996969
 21
172.4227272727272
 31
0.0
  0
LINE
  5
29E
330
6F
100
AcDbEntity
  8
_4-C_ハッチ
  6
Continuous
 62
    83
100
AcDbLine
 10
80.24999999996969
 20
173.9227272727272
 30
0.0
 11
80.24999999996969
 21
190.8477272727272
 31
0.0
  0
LINE
  5
29F
330
6F
100
AcDbEntity
  8
_4-C_ハッチ
  6
Continuous
 62
    83
100
AcDbLine
 10
79.4999999999697
 20
155.4977272727272
 30
0.0
 11
79.4999999999697
 21
172.4227272727272
 31
0.0
  0
LINE
  5
2A0
330
6F
100
AcDbEntity
  8
_4-C_ハッチ
  6
Continuous
 62
    83
100
AcDbLine
 10
79.4999999999697
 20
173.9227272727272
 30
0.0
 11
79.4999999999697
 21
190.8477272727272
 31
0.0
  0
LINE
  5
2A1
330
6F
100
AcDbEntity
  8
_4-C_ハッチ
  6
Continuous
 62
    83
100
AcDbLine
 10
78.7499999999697
 20
155.4977272727272
 30
0.0
 11
78.7499999999697
 21
172.4227272727272
 31
0.0
  0
LINE
  5
2A2
330
6F
100
AcDbEntity
  8
_4-C_ハッチ
  6
Continuous
 62
    83
100
AcDbLine
 10
78.7499999999697
 20
173.9227272727272
 30
0.0
 11
78.7499999999697
 21
190.8477272727272
 31
0.0
  0
LINE
  5
2A3
330
6F
100
AcDbEntity
  8
_4-C_ハッチ
  6
Continuous
 62
    83
100
AcDbLine
 10
77.9999999999697
 20
155.4977272727272
 30
0.0
 11
77.9999999999697
 21
172.4227272727272
 31
0.0
  0
LINE
  5
2A4
330
6F
100
AcDbEntity
  8
_4-C_ハッチ
  6
Continuous
 62
    83
100
AcDbLine
 10
77.9999999999697
 20
173.9227272727272
 30
0.0
 11
77.9999999999697
 21
190.8477272727272
 31
0.0
  0
LINE
  5
2A5
330
6F
100
AcDbEntity
  8
_4-C_ハッチ
  6
Continuous
 62
    83
100
AcDbLine
 10
77.2499999999697
 20
155.4977272727272
 30
0.0
 11
77.2499999999697
 21
172.4227272727272
 31
0.0
  0
LINE
  5
2A6
330
6F
100
AcDbEntity
  8
_4-C_ハッチ
  6
Continuous
 62
    83
100
AcDbLine
 10
77.2499999999697
 20
173.9227272727272
 30
0.0
 11
77.2499999999697
 21
190.8477272727272
 31
0.0
  0
LINE
  5
2A7
330
6F
100
AcDbEntity
  8
_4-C_ハッチ
  6
Continuous
 62
    83
100
AcDbLine
 10
76.4999999999697
 20
155.4977272727272
 30
0.0
 11
76.4999999999697
 21
172.4227272727272
 31
0.0
  0
LINE
  5
2A8
330
6F
100
AcDbEntity
  8
_4-C_ハッチ
  6
Continuous
 62
    83
100
AcDbLine
 10
76.4999999999697
 20
173.9227272727272
 30
0.0
 11
76.4999999999697
 21
190.8477272727272
 31
0.0
  0
LINE
  5
2A9
330
6F
100
AcDbEntity
  8
_4-C_ハッチ
  6
Continuous
 62
    83
100
AcDbLine
 10
75.7499999999697
 20
155.4977272727272
 30
0.0
 11
75.7499999999697
 21
172.4227272727272
 31
0.0
  0
LINE
  5
2AA
330
6F
100
AcDbEntity
  8
_4-C_ハッチ
  6
Continuous
 62
    83
100
AcDbLine
 10
75.7499999999697
 20
173.9227272727272
 30
0.0
 11
75.7499999999697
 21
190.8477272727272
 31
0.0
  0
LINE
  5
2AB
330
6F
100
AcDbEntity
  8
_4-C_ハッチ
  6
Continuous
 62
    83
100
AcDbLine
 10
74.9999999999697
 20
155.4977272727272
 30
0.0
 11
74.9999999999697
 21
172.4227272727272
 31
0.0
  0
LINE
  5
2AC
330
6F
100
AcDbEntity
  8
_4-C_ハッチ
  6
Continuous
 62
    83
100
AcDbLine
 10
74.9999999999697
 20
173.9227272727272
 30
0.0
 11
74.9999999999697
 21
190.8477272727272
 31
0.0
  0
LINE
  5
2AD
330
6F
100
AcDbEntity
  8
_4-C_ハッチ
  6
Continuous
 62
    83
100
AcDbLine
 10
74.2499999999697
 20
155.4977272727272
 30
0.0
 11
74.2499999999697
 21
172.4227272727272
 31
0.0
  0
LINE
  5
2AE
330
6F
100
AcDbEntity
  8
_4-C_ハッチ
  6
Continuous
 62
    83
100
AcDbLine
 10
74.2499999999697
 20
173.9227272727272
 30
0.0
 11
74.2499999999697
 21
190.8477272727272
 31
0.0
  0
LINE
  5
2AF
330
6F
100
AcDbEntity
  8
_4-C_ハッチ
  6
Continuous
 62
    83
100
AcDbLine
 10
73.4999999999697
 20
155.4977272727272
 30
0.0
 11
73.4999999999697
 21
172.4227272727272
 31
0.0
  0
LINE
  5
2B0
330
6F
100
AcDbEntity
  8
_4-C_ハッチ
  6
Continuous
 62
    83
100
AcDbLine
 10
73.4999999999697
 20
173.9227272727272
 30
0.0
 11
73.4999999999697
 21
190.8477272727272
 31
0.0
  0
LINE
  5
2B1
330
6F
100
AcDbEntity
  8
_4-C_ハッチ
  6
Continuous
 62
    83
100
AcDbLine
 10
72.7499999999697
 20
155.4977272727272
 30
0.0
 11
72.7499999999697
 21
172.4227272727272
 31
0.0
  0
LINE
  5
2B2
330
6F
100
AcDbEntity
  8
_4-C_ハッチ
  6
Continuous
 62
    83
100
AcDbLine
 10
72.7499999999697
 20
173.9227272727272
 30
0.0
 11
72.7499999999697
 21
190.8477272727272
 31
0.0
  0
LINE
  5
2B3
330
6F
100
AcDbEntity
  8
_4-C_ハッチ
  6
Continuous
 62
    83
100
AcDbLine
 10
71.9999999999697
 20
155.4977272727272
 30
0.0
 11
71.9999999999697
 21
172.4227272727272
 31
0.0
  0
LINE
  5
2B4
330
6F
100
AcDbEntity
  8
_4-C_ハッチ
  6
Continuous
 62
    83
100
AcDbLine
 10
71.9999999999697
 20
173.9227272727272
 30
0.0
 11
71.9999999999697
 21
190.8477272727272
 31
0.0
  0
LINE
  5
2B5
330
6F
100
AcDbEntity
  8
_4-C_ハッチ
  6
Continuous
 62
    83
100
AcDbLine
 10
71.2499999999697
 20
155.4977272727272
 30
0.0
 11
71.2499999999697
 21
172.4227272727272
 31
0.0
  0
LINE
  5
2B6
330
6F
100
AcDbEntity
  8
_4-C_ハッチ
  6
Continuous
 62
    83
100
AcDbLine
 10
71.2499999999697
 20
173.9227272727272
 30
0.0
 11
71.2499999999697
 21
190.8477272727272
 31
0.0
  0
LINE
  5
2B7
330
6F
100
AcDbEntity
  8
_4-C_ハッチ
  6
Continuous
 62
    83
100
AcDbLine
 10
70.4999999999697
 20
155.4977272727272
 30
0.0
 11
70.4999999999697
 21
172.4227272727272
 31
0.0
  0
LINE
  5
2B8
330
6F
100
AcDbEntity
  8
_4-C_ハッチ
  6
Continuous
 62
    83
100
AcDbLine
 10
70.4999999999697
 20
173.9227272727272
 30
0.0
 11
70.4999999999697
 21
190.8477272727272
 31
0.0
  0
LINE
  5
2B9
330
6F
100
AcDbEntity
  8
_4-C_ハッチ
  6
Continuous
 62
    83
100
AcDbLine
 10
69.7499999999697
 20
155.4977272727272
 30
0.0
 11
69.7499999999697
 21
172.4227272727272
 31
0.0
  0
LINE
  5
2BA
330
6F
100
AcDbEntity
  8
_4-C_ハッチ
  6
Continuous
 62
    83
100
AcDbLine
 10
69.7499999999697
 20
173.9227272727272
 30
0.0
 11
69.7499999999697
 21
190.8477272727272
 31
0.0
  0
LINE
  5
2BB
330
6F
100
AcDbEntity
  8
_4-C_ハッチ
  6
Continuous
 62
    83
100
AcDbLine
 10
68.9999999999697
 20
155.4977272727272
 30
0.0
 11
68.9999999999697
 21
172.4227272727272
 31
0.0
  0
LINE
  5
2BC
330
6F
100
AcDbEntity
  8
_4-C_ハッチ
  6
Continuous
 62
    83
100
AcDbLine
 10
68.9999999999697
 20
173.9227272727272
 30
0.0
 11
68.9999999999697
 21
190.8477272727272
 31
0.0
  0
LINE
  5
2BD
330
6F
100
AcDbEntity
  8
_4-C_ハッチ
  6
Continuous
 62
    83
100
AcDbLine
 10
68.2499999999697
 20
155.4977272727272
 30
0.0
 11
68.2499999999697
 21
172.4227272727272
 31
0.0
  0
LINE
  5
2BE
330
6F
100
AcDbEntity
  8
_4-C_ハッチ
  6
Continuous
 62
    83
100
AcDbLine
 10
68.2499999999697
 20
173.9227272727272
 30
0.0
 11
68.2499999999697
 21
190.8477272727272
 31
0.0
  0
LINE
  5
2BF
330
6F
100
AcDbEntity
  8
_4-C_ハッチ
  6
Continuous
 62
    83
100
AcDbLine
 10
67.4999999999697
 20
155.4977272727272
 30
0.0
 11
67.4999999999697
 21
172.4227272727272
 31
0.0
  0
LINE
  5
2C0
330
6F
100
AcDbEntity
  8
_4-C_ハッチ
  6
Continuous
 62
    83
100
AcDbLine
 10
67.4999999999697
 20
173.9227272727272
 30
0.0
 11
67.4999999999697
 21
190.8477272727272
 31
0.0
  0
LINE
  5
2C1
330
6F
100
AcDbEntity
  8
_4-C_ハッチ
  6
Continuous
 62
    83
100
AcDbLine
 10
66.7499999999697
 20
155.4977272727272
 30
0.0
 11
66.7499999999697
 21
172.4227272727272
 31
0.0
  0
LINE
  5
2C2
330
6F
100
AcDbEntity
  8
_4-C_ハッチ
  6
Continuous
 62
    83
100
AcDbLine
 10
66.7499999999697
 20
173.9227272727272
 30
0.0
 11
66.7499999999697
 21
190.8477272727272
 31
0.0
  0
LINE
  5
2C3
330
6F
100
AcDbEntity
  8
_4-C_ハッチ
  6
Continuous
 62
    83
100
AcDbLine
 10
65.9999999999697
 20
155.4977272727272
 30
0.0
 11
65.9999999999697
 21
172.4227272727272
 31
0.0
  0
LINE
  5
2C4
330
6F
100
AcDbEntity
  8
_4-C_ハッチ
  6
Continuous
 62
    83
100
AcDbLine
 10
65.9999999999697
 20
173.9227272727272
 30
0.0
 11
65.9999999999697
 21
190.8477272727272
 31
0.0
  0
LINE
  5
2C5
330
6F
100
AcDbEntity
  8
_4-C_ハッチ
  6
Continuous
 62
    83
100
AcDbLine
 10
65.2499999999697
 20
155.4977272727272
 30
0.0
 11
65.2499999999697
 21
172.4227272727272
 31
0.0
  0
LINE
  5
2C6
330
6F
100
AcDbEntity
  8
_4-C_ハッチ
  6
Continuous
 62
    83
100
AcDbLine
 10
65.2499999999697
 20
173.9227272727272
 30
0.0
 11
65.2499999999697
 21
190.8477272727272
 31
0.0
  0
LINE
  5
2C7
330
6F
100
AcDbEntity
  8
_4-C_ハッチ
  6
Continuous
 62
    83
100
AcDbLine
 10
64.4999999999697
 20
155.4977272727272
 30
0.0
 11
64.4999999999697
 21
172.4227272727272
 31
0.0
  0
LINE
  5
2C8
330
6F
100
AcDbEntity
  8
_4-C_ハッチ
  6
Continuous
 62
    83
100
AcDbLine
 10
64.4999999999697
 20
173.9227272727272
 30
0.0
 11
64.4999999999697
 21
190.8477272727272
 31
0.0
  0
LINE
  5
2C9
330
6F
100
AcDbEntity
  8
_4-C_ハッチ
  6
Continuous
 62
    83
100
AcDbLine
 10
63.7499999999697
 20
155.4977272727272
 30
0.0
 11
63.7499999999697
 21
172.4227272727272
 31
0.0
  0
LINE
  5
2CA
330
6F
100
AcDbEntity
  8
_4-C_ハッチ
  6
Continuous
 62
    83
100
AcDbLine
 10
63.7499999999697
 20
173.9227272727272
 30
0.0
 11
63.7499999999697
 21
190.8477272727272
 31
0.0
  0
LINE
  5
2CB
330
6F
100
AcDbEntity
  8
_4-C_ハッチ
  6
Continuous
 62
    83
100
AcDbLine
 10
62.9999999999697
 20
155.4977272727272
 30
0.0
 11
62.9999999999697
 21
172.4227272727272
 31
0.0
  0
LINE
  5
2CC
330
6F
100
AcDbEntity
  8
_4-C_ハッチ
  6
Continuous
 62
    83
100
AcDbLine
 10
62.9999999999697
 20
173.9227272727272
 30
0.0
 11
62.9999999999697
 21
190.8477272727272
 31
0.0
  0
LINE
  5
2CD
330
6F
100
AcDbEntity
  8
_4-C_ハッチ
  6
Continuous
 62
    83
100
AcDbLine
 10
62.2499999999697
 20
155.4977272727272
 30
0.0
 11
62.2499999999697
 21
172.4227272727272
 31
0.0
  0
LINE
  5
2CE
330
6F
100
AcDbEntity
  8
_4-C_ハッチ
  6
Continuous
 62
    83
100
AcDbLine
 10
62.2499999999697
 20
173.9227272727272
 30
0.0
 11
62.2499999999697
 21
190.8477272727272
 31
0.0
  0
LINE
  5
2CF
330
6F
100
AcDbEntity
  8
_4-C_ハッチ
  6
Continuous
 62
    83
100
AcDbLine
 10
60.7499999999697
 20
173.4190271610904
 30
0.0
 11
60.7499999999697
 21
190.8477272727272
 31
0.0
  0
LINE
  5
2D0
330
6F
100
AcDbEntity
  8
_4-C_ハッチ
  6
Continuous
 62
    83
100
AcDbLine
 10
60.7499999999697
 20
155.4977272727272
 30
0.0
 11
60.7499999999697
 21
173.0076137753713
 31
0.0
  0
LINE
  5
2D1
330
6F
100
AcDbEntity
  8
_4-C_ハッチ
  6
Continuous
 62
    83
100
AcDbLine
 10
115.4999999999697
 20
173.4179809732054
 30
0.0
 11
115.4999999999697
 21
190.8477272727272
 31
0.0
  0
LINE
  5
2D2
330
6F
100
AcDbEntity
  8
_4-C_ハッチ
  6
Continuous
 62
    83
100
AcDbLine
 10
115.4999999999697
 20
155.4977272727272
 30
0.0
 11
115.4999999999697
 21
172.9210417278996
 31
0.0
  0
LINE
  5
2D3
330
6F
100
AcDbEntity
  8
_4-C_ハッチ
  6
Continuous
 62
    83
100
AcDbLine
 10
114.7499999999697
 20
173.4179809732054
 30
0.0
 11
114.7499999999697
 21
190.8477272727272
 31
0.0
  0
LINE
  5
2D4
330
6F
100
AcDbEntity
  8
_4-C_ハッチ
  6
Continuous
 62
    83
100
AcDbLine
 10
114.7499999999697
 20
155.4977272727272
 30
0.0
 11
114.7499999999697
 21
172.9210417278996
 31
0.0
  0
LINE
  5
2D5
330
6F
100
AcDbEntity
  8
_4-B_予備
  6
Continuous
 62
    83
100
AcDbLine
 10
118.0628881053202
 20
216.1098551548866
 30
0.0
 11
125.4606984553369
 21
216.1098551548866
 31
0.0
  0
LINE
  5
2D6
330
6F
100
AcDbEntity
  8
_4-B_予備
  6
Continuous
 62
    83
100
AcDbLine
 10
121.7617932803285
 20
232.0944096611726
 30
0.0
 11
121.7617932803285
 21
223.5076655068866
 31
0.0
  0
LINE
  5
2D7
330
6F
100
AcDbEntity
  8
_4-B_予備
  6
Continuous
 62
    83
100
AcDbLine
 10
118.8026691403219
 20
217.5894172252867
 30
0.0
 11
124.7209174203352
 21
217.5894172252867
 31
0.0
  0
LINE
  5
2D8
330
6F
100
AcDbEntity
  8
_4-B_予備
  6
Continuous
 62
    83
100
AcDbLine
 10
119.5424501753236
 20
219.0689792956866
 30
0.0
 11
123.9811363853335
 21
219.0689792956866
 31
0.0
  0
LINE
  5
2D9
330
6F
100
AcDbEntity
  8
_4-B_予備
  6
Continuous
 62
    83
100
AcDbLine
 10
120.2822312103252
 20
220.5485413660866
 30
0.0
 11
123.2413553503319
 21
220.5485413660866
 31
0.0
  0
LINE
  5
2DA
330
6F
100
AcDbEntity
  8
_4-B_予備
  6
Continuous
 62
    83
100
AcDbLine
 10
121.0220122453269
 20
222.0281034364866
 30
0.0
 11
122.5015743153302
 21
222.0281034364866
 31
0.0
  0
LINE
  5
2DB
330
6F
100
AcDbEntity
  8
_4-B_予備
  6
Continuous
 62
    83
100
AcDbLine
 10
70.60982829435812
 20
216.1098551548866
 30
0.0
 11
78.00763864437475
 21
216.1098551548866
 31
0.0
  0
LINE
  5
2DC
330
6F
100
AcDbEntity
  8
_4-B_予備
  6
Continuous
 62
    83
100
AcDbLine
 10
74.30873346936643
 20
232.0944096611726
 30
0.0
 11
74.30873346936643
 21
223.5076655068866
 31
0.0
  0
LINE
  5
2DD
330
6F
100
AcDbEntity
  8
_4-B_予備
  6
Continuous
 62
    83
100
AcDbLine
 10
71.34960932935979
 20
217.5894172252867
 30
0.0
 11
77.2678576093731
 21
217.5894172252867
 31
0.0
  0
LINE
  5
2DE
330
6F
100
AcDbEntity
  8
_4-B_予備
  6
Continuous
 62
    83
100
AcDbLine
 10
72.08939036436146
 20
219.0689792956866
 30
0.0
 11
76.52807657437143
 21
219.0689792956866
 31
0.0
  0
LINE
  5
2DF
330
6F
100
AcDbEntity
  8
_4-B_予備
  6
Continuous
 62
    83
100
AcDbLine
 10
72.82917139936313
 20
220.5485413660866
 30
0.0
 11
75.78829553936974
 21
220.5485413660866
 31
0.0
  0
LINE
  5
2E0
330
6F
100
AcDbEntity
  8
_4-B_予備
  6
Continuous
 62
    83
100
AcDbLine
 10
73.56895243436479
 20
222.0281034364866
 30
0.0
 11
75.04851450436807
 21
222.0281034364866
 31
0.0
  0
LINE
  5
2E1
330
6F
100
AcDbEntity
  8
_4-B_予備
  6
Continuous
 62
    83
100
AcDbLine
 10
149.3168959148932
 20
210.5948275877273
 30
0.0
 11
152.3303105421798
 21
202.3881413120551
 31
0.0
  0
LINE
  5
2E2
330
6F
100
AcDbEntity
  8
_4-B_予備
  6
Continuous
 62
    83
100
AcDbLine
 10
49.17044766877093
 20
117.7748165394755
 30
0.0
 11
43.17778915377092
 21
102.2727272727273
 31
0.0
  0
LINE
  5
2E3
330
6F
100
AcDbEntity
  8
_4-B_予備
  6
Continuous
 62
    83
100
AcDbLine
 10
61.00997733430872
 20
114.737914660946
 30
0.0
 11
55.90857014519472
 21
115.6279526930067
 31
0.0
  0
LINE
  5
2E4
330
6F
100
AcDbEntity
  8
_4-B_予備
  6
Continuous
 62
    83
100
AcDbLine
 10
56.53615584904915
 20
104.1602502862122
 30
0.0
 11
57.56923570745239
 21
110.0815264864947
 31
0.0
  0
LINE
  5
2E5
330
6F
100
AcDbEntity
  8
_4-B_予備
  6
Continuous
 62
    83
100
AcDbLine
 10
60.32182900893747
 20
113.8066370260558
 30
0.0
 11
56.24070325764625
 21
114.5186674517043
 31
0.0
  0
LINE
  5
2E6
330
6F
100
AcDbEntity
  8
_4-B_予備
  6
Continuous
 62
    83
100
AcDbLine
 10
59.6336806835662
 20
112.8753593911655
 30
0.0
 11
56.57283637009781
 21
113.4093822104019
 31
0.0
  0
LINE
  5
2E7
330
6F
100
AcDbEntity
  8
_4-B_予備
  6
Continuous
 62
    83
100
AcDbLine
 10
58.94553235819493
 20
111.9440817562752
 30
0.0
 11
56.90496948254935
 21
112.3000969690995
 31
0.0
  0
LINE
  5
2E8
330
6F
100
AcDbEntity
  8
_4-B_予備
  6
Continuous
 62
    83
100
AcDbLine
 10
58.25738403282366
 20
111.0128041213849
 30
0.0
 11
57.23710259500088
 21
111.1908117277971
 31
0.0
  0
LINE
  5
2E9
330
6F
100
AcDbEntity
  8
_4-B_予備
  6
Continuous
 62
    83
100
AcDbLine
 10
76.58938520894749
 20
111.9345446774927
 30
0.0
 11
73.01840017656771
 21
112.5575712999352
 31
0.0
  0
LINE
  5
2EA
330
6F
100
AcDbEntity
  8
_4-B_予備
  6
Continuous
 62
    83
100
AcDbLine
 10
73.4577101692658
 20
104.530179615179
 30
0.0
 11
74.18086607014807
 21
108.6750729553767
 31
0.0
  0
LINE
  5
2EB
330
6F
100
AcDbEntity
  8
_4-B_予備
  6
Continuous
 62
    83
100
AcDbLine
 10
76.10768138118763
 20
111.2826503330695
 30
0.0
 11
73.25089335528379
 21
111.7810716310235
 31
0.0
  0
LINE
  5
2EC
330
6F
100
AcDbEntity
  8
_4-B_予備
  6
Continuous
 62
    83
100
AcDbLine
 10
75.62597755342773
 20
110.6307559886463
 30
0.0
 11
73.48338653399986
 21
111.0045719621118
 31
0.0
  0
LINE
  5
2ED
330
6F
100
AcDbEntity
  8
_4-B_予備
  6
Continuous
 62
    83
100
AcDbLine
 10
75.14427372566783
 20
109.9788616442231
 30
0.0
 11
73.71587971271591
 21
110.2280722932001
 31
0.0
  0
LINE
  5
2EE
330
6F
100
AcDbEntity
  8
_4-B_予備
  6
Continuous
 62
    83
100
AcDbLine
 10
74.66256989790796
 20
109.3269672997999
 30
0.0
 11
73.948372891432
 21
109.4515726242884
 31
0.0
  0
LINE
  5
2EF
330
6F
100
AcDbEntity
  8
_4-B_予備
  6
Continuous
 62
    83
100
AcDbLine
 10
61.25134244396793
 20
210.5948275877273
 30
0.0
 11
149.3168959148932
 21
210.5948275877273
 31
0.0
  0
ARC
  5
2F0
330
6F
100
AcDbEntity
  8
_4-B_予備
  6
Continuous
 62
    83
100
AcDbCircle
 10
62.02209344743909
 20
195.9849653751017
 30
0.0
 40
14.66528014330587
100
AcDbArc
 50
92.94299907033233
 51
151.2029425508389
  0
LINE
  5
2F1
330
6F
100
AcDbEntity
  8
_4-B_予備
  6
Continuous
 62
    83
100
AcDbLine
 10
49.17044766877093
 20
203.0493579506373
 30
0.0
 11
49.17044766877093
 21
117.7748165394755
 31
0.0
  0
LINE
  5
2F2
330
6F
100
AcDbEntity
  8
_4-B_予備
  6
DASHED1
 62
    83
100
AcDbLine
 10
152.3303105421798
 20
202.3881413120551
 30
0.0
 11
172.2209988565474
 21
204.7750239097792
 31
0.0
  0
LINE
  5
2F3
330
6F
100
AcDbEntity
  8
_4-B_予備
  6
DASHED1
 62
    83
100
AcDbLine
 10
172.2209988565474
 20
204.7750239097792
 30
0.0
 11
172.2948763233825
 21
212.66379769212
 31
0.0
  0
LINE
  5
2F4
330
6F
100
AcDbEntity
  8
_4-B_予備
  6
DASHED1
 62
    83
100
AcDbLine
 10
172.2948763233825
 20
212.66379769212
 30
0.0
 11
185.2280632188747
 21
214.2101569948419
 31
0.0
  0
LINE
  5
2F5
330
6F
100
AcDbEntity
  8
_4-B_予備
  6
Continuous
 62
    83
100
AcDbLine
 10
49.17044766877093
 20
117.7748165394755
 30
0.0
 11
102.4429254905726
 21
105.621160774032
 31
0.0
  0
LINE
  5
2F6
330
6F
100
AcDbEntity
  8
_4-B_予備
  6
DASHED1
 62
    83
100
AcDbLine
 10
102.4429254905726
 20
105.621160774032
 30
0.0
 11
104.1808564340448
 21
85.74605089572537
 31
0.0
  0
LINE
  5
2F7
330
6F
100
AcDbEntity
  8
_4-B_予備
  6
DASHED1
 62
    83
100
AcDbLine
 10
84.15977121384543
 20
76.78117281416686
 30
0.0
 11
102.6563733214397
 21
81.63168035986467
 31
0.0
  0
LINE
  5
2F8
330
6F
100
AcDbEntity
  8
_4-B_予備
  6
DASHED1
 62
    83
100
AcDbLine
 10
104.1808564340448
 20
85.74605089572537
 30
0.0
 11
102.6563733214397
 21
81.63168035986467
 31
0.0
  0
LINE
  5
2F9
330
6F
100
AcDbEntity
  8
_4-E_文字
  6
Continuous
 62
     4
100
AcDbLine
 10
98.77259461938372
 20
206.3350461572905
 30
0.0
 11
95.15156284137217
 21
206.3350461572905
 31
0.0
  0
LINE
  5
2FA
330
6F
100
AcDbEntity
  8
_4-E_文字
  6
Continuous
 62
     4
100
AcDbLine
 10
95.15156284137217
 20
188.6322241314561
 30
0.0
 11
95.15156284137217
 21
206.3350461572905
 31
0.0
  0
CIRCLE
  5
2FB
330
6F
100
AcDbEntity
  8
_4-E_文字
 62
     4
100
AcDbCircle
 10
95.15156284137217
 20
196.7727272727272
 30
0.0
 40
0.4
  0
CIRCLE
  5
2FC
330
6F
100
AcDbEntity
  8
_4-E_文字
 62
     4
100
AcDbCircle
 10
95.15156284137217
 20
188.6322241314561
 30
0.0
 40
0.4
  0
LINE
  5
2FD
330
6F
100
AcDbEntity
  8
_4-E_文字
  6
Continuous
 62
     4
100
AcDbLine
 10
177.772548846929
 20
11.70403276571889
 30
0.0
 11
177.772548846929
 21
15.05904471429201
 31
0.0
  0
LINE
  5
2FE
330
6F
100
AcDbEntity
  8
_4-E_文字
  6
Continuous
 62
     4
100
AcDbLine
 10
177.772548846929
 20
15.05904471429201
 30
0.0
 11
164.4552055000419
 21
15.05904471429201
 31
0.0
  0
LINE
  5
2FF
330
6F
100
AcDbEntity
  8
_4-E_文字
  6
Continuous
 62
     4
100
AcDbLine
 10
164.4552055000419
 20
15.05904471429201
 30
0.0
 11
164.4552055000419
 21
11.70403276571889
 31
0.0
  0
LINE
  5
300
330
6F
100
AcDbEntity
  8
_4-E_文字
  6
Continuous
 62
     4
100
AcDbLine
 10
164.4552055000419
 20
11.70403276571889
 30
0.0
 11
177.772548846929
 21
11.70403276571889
 31
0.0
  0
LINE
  5
301
330
6F
100
AcDbEntity
  8
_4-E_文字
  6
Continuous
 62
     4
100
AcDbLine
 10
150.9945734775925
 20
236.329214296259
 30
0.0
 11
150.9945734775925
 21
238.9280888070846
 31
0.0
  0
LINE
  5
302
330
6F
100
AcDbEntity
  8
_4-E_文字
  6
Continuous
 62
     4
100
AcDbLine
 10
150.9945734775925
 20
238.9280888070846
 30
0.0
 11
157.2690300071298
 21
238.9280888070846
 31
0.0
  0
LINE
  5
303
330
6F
100
AcDbEntity
  8
_4-E_文字
  6
Continuous
 62
     4
100
AcDbLine
 10
157.2690300071298
 20
238.9280888070846
 30
0.0
 11
157.2690300071298
 21
236.329214296259
 31
0.0
  0
LINE
  5
304
330
6F
100
AcDbEntity
  8
_4-E_文字
  6
Continuous
 62
     4
100
AcDbLine
 10
157.2690300071298
 20
236.329214296259
 30
0.0
 11
150.9945734775925
 21
236.329214296259
 31
0.0
  0
LINE
  5
305
330
6F
100
AcDbEntity
  8
_4-E_文字
  6
Continuous
 62
     4
100
AcDbLine
 10
148.1777891537709
 20
237.2727272727273
 30
0.0
 11
150.9945734775925
 21
237.2727272727273
 31
0.0
  0
LINE
  5
306
330
6F
100
AcDbEntity
  8
_4-E_文字
  6
Continuous
 62
     4
100
AcDbLine
 10
162.2795688337999
 20
128.7406426860353
 30
0.0
 11
166.4237200807921
 21
128.7406426860353
 31
0.0
  0
LINE
  5
307
330
6F
100
AcDbEntity
  8
_4-E_文字
  6
Continuous
 62
     4
100
AcDbLine
 10
166.4237200807921
 20
128.7406426860353
 30
0.0
 11
166.4237200807921
 21
126.1417681752098
 31
0.0
  0
LINE
  5
308
330
6F
100
AcDbEntity
  8
_4-E_文字
  6
Continuous
 62
     4
100
AcDbLine
 10
166.4237200807921
 20
126.1417681752098
 30
0.0
 11
162.2795688337999
 21
126.1417681752098
 31
0.0
  0
LINE
  5
309
330
6F
100
AcDbEntity
  8
_4-E_文字
  6
Continuous
 62
     4
100
AcDbLine
 10
162.2795688337999
 20
126.1417681752098
 30
0.0
 11
162.2795688337999
 21
128.7406426860353
 31
0.0
  0
LINE
  5
30A
330
6F
100
AcDbEntity
  8
_4-E_文字
  6
Continuous
 62
     4
100
AcDbLine
 10
161.1266889873612
 20
129.3652286594744
 30
0.0
 11
162.240080560277
 21
128.7398850231292
 31
0.0
  0
CIRCLE
  5
30B
330
6F
100
AcDbEntity
  8
_4-E_文字
 62
     4
100
AcDbCircle
 10
161.1266889873612
 20
129.3652286594744
 30
0.0
 40
0.4
  0
LINE
  5
30C
330
6F
100
AcDbEntity
  8
_4-E_文字
  6
Continuous
 62
     4
100
AcDbLine
 10
151.2985340827007
 20
110.0855223174997
 30
0.0
 11
155.442685329693
 21
110.0855223174997
 31
0.0
  0
LINE
  5
30D
330
6F
100
AcDbEntity
  8
_4-E_文字
  6
Continuous
 62
     4
100
AcDbLine
 10
155.442685329693
 20
110.0855223174997
 30
0.0
 11
155.442685329693
 21
107.4866478066741
 31
0.0
  0
LINE
  5
30E
330
6F
100
AcDbEntity
  8
_4-E_文字
  6
Continuous
 62
     4
100
AcDbLine
 10
155.442685329693
 20
107.4866478066741
 30
0.0
 11
151.2985340827007
 21
107.4866478066741
 31
0.0
  0
LINE
  5
30F
330
6F
100
AcDbEntity
  8
_4-E_文字
  6
Continuous
 62
     4
100
AcDbLine
 10
151.2985340827007
 20
107.4866478066741
 30
0.0
 11
151.2985340827007
 21
110.0855223174997
 31
0.0
  0
LINE
  5
310
330
6F
100
AcDbEntity
  8
_4-E_文字
  6
Continuous
 62
     4
100
AcDbLine
 10
151.2985340827007
 20
110.0855223174997
 30
0.0
 11
149.9750720643348
 21
110.0500615622475
 31
0.0
  0
CIRCLE
  5
311
330
6F
100
AcDbEntity
  8
_4-E_文字
 62
     4
100
AcDbCircle
 10
149.9750720643348
 20
110.0500615622475
 30
0.0
 40
0.4
  0
LINE
  5
312
330
6F
100
AcDbEntity
  8
_4-E_文字
  6
Continuous
 62
     4
100
AcDbLine
 10
111.2177613572379
 20
145.7868227720849
 30
0.0
 11
111.2177613572379
 21
148.3856972829105
 31
0.0
  0
LINE
  5
313
330
6F
100
AcDbEntity
  8
_4-E_文字
  6
Continuous
 62
     4
100
AcDbLine
 10
111.2177613572379
 20
148.3856972829105
 30
0.0
 11
109.8942993388719
 21
148.3502365276584
 31
0.0
  0
CIRCLE
  5
314
330
6F
100
AcDbEntity
  8
_4-E_文字
 62
     4
100
AcDbCircle
 10
109.8942993388719
 20
148.3502365276584
 30
0.0
 40
0.4
  0
LINE
  5
315
330
6F
100
AcDbEntity
  8
_4-E_文字
  6
Continuous
 62
     4
100
AcDbLine
 10
111.2177613572379
 20
148.3856972829105
 30
0.0
 11
117.6209142801486
 21
148.3856972829105
 31
0.0
  0
LINE
  5
316
330
6F
100
AcDbEntity
  8
_4-E_文字
  6
Continuous
 62
     4
100
AcDbLine
 10
117.6209142801486
 20
148.3856972829105
 30
0.0
 11
117.6209142801486
 21
145.7868227720849
 31
0.0
  0
LINE
  5
317
330
6F
100
AcDbEntity
  8
_4-E_文字
  6
Continuous
 62
     4
100
AcDbLine
 10
117.6209142801486
 20
145.7868227720849
 30
0.0
 11
111.2177613572379
 21
145.7868227720849
 31
0.0
  0
LINE
  5
318
330
6F
100
AcDbEntity
  8
_4-E_文字
  6
Continuous
 62
     4
100
AcDbLine
 10
44.97648467125475
 20
97.65371121377716
 30
0.0
 11
44.97648467125475
 21
100.2525857246028
 31
0.0
  0
LINE
  5
319
330
6F
100
AcDbEntity
  8
_4-E_文字
  6
Continuous
 62
     4
100
AcDbLine
 10
44.97648467125475
 20
100.2525857246028
 30
0.0
 11
43.17778915377084
 21
102.2727272727273
 31
0.0
  0
CIRCLE
  5
31A
330
6F
100
AcDbEntity
  8
_4-E_文字
 62
     4
100
AcDbCircle
 10
43.17778915377084
 20
102.2727272727273
 30
0.0
 40
0.4
  0
LINE
  5
31B
330
6F
100
AcDbEntity
  8
_4-E_文字
  6
Continuous
 62
     4
100
AcDbLine
 10
44.97648467125475
 20
100.2525857246028
 30
0.0
 11
51.25094120079203
 21
100.2525857246028
 31
0.0
  0
LINE
  5
31C
330
6F
100
AcDbEntity
  8
_4-E_文字
  6
Continuous
 62
     4
100
AcDbLine
 10
51.25094120079203
 20
100.2525857246028
 30
0.0
 11
51.25094120079203
 21
97.65371121377716
 31
0.0
  0
LINE
  5
31D
330
6F
100
AcDbEntity
  8
_4-E_文字
  6
Continuous
 62
     4
100
AcDbLine
 10
51.25094120079203
 20
97.65371121377716
 30
0.0
 11
44.97648467125475
 21
97.65371121377716
 31
0.0
  0
CIRCLE
  5
31E
330
6F
100
AcDbEntity
  8
_4-E_文字
 62
     4
100
AcDbCircle
 10
148.1777891537709
 20
237.2727272727273
 30
0.0
 40
0.4
  0
LINE
  5
31F
330
6F
100
AcDbEntity
  8
_4-E_文字
  6
Continuous
 62
     4
100
AcDbLine
 10
52.40496819240226
 20
119.9846704068259
 30
0.0
 11
52.40496819240226
 21
122.5835449176515
 31
0.0
  0
LINE
  5
320
330
6F
100
AcDbEntity
  8
_4-E_文字
  6
Continuous
 62
     4
100
AcDbLine
 10
52.40496819240226
 20
122.5835449176515
 30
0.0
 11
58.67942472193953
 21
122.5835449176515
 31
0.0
  0
LINE
  5
321
330
6F
100
AcDbEntity
  8
_4-E_文字
  6
Continuous
 62
     4
100
AcDbLine
 10
58.67942472193953
 20
122.5835449176515
 30
0.0
 11
58.67942472193953
 21
119.9846704068259
 31
0.0
  0
LINE
  5
322
330
6F
100
AcDbEntity
  8
_4-E_文字
  6
Continuous
 62
     4
100
AcDbLine
 10
58.67942472193953
 20
119.9846704068259
 30
0.0
 11
52.40496819240226
 21
119.9846704068259
 31
0.0
  0
LINE
  5
323
330
6F
100
AcDbEntity
  8
_4-E_文字
  6
Continuous
 62
     4
100
AcDbLine
 10
59.882409029636
 20
206.5870306489694
 30
0.0
 11
59.882409029636
 21
209.185905159795
 31
0.0
  0
LINE
  5
324
330
6F
100
AcDbEntity
  8
_4-E_文字
  6
Continuous
 62
     4
100
AcDbLine
 10
59.882409029636
 20
209.185905159795
 30
0.0
 11
66.1568655591733
 21
209.185905159795
 31
0.0
  0
LINE
  5
325
330
6F
100
AcDbEntity
  8
_4-E_文字
  6
Continuous
 62
     4
100
AcDbLine
 10
66.1568655591733
 20
209.185905159795
 30
0.0
 11
66.1568655591733
 21
206.5870306489694
 31
0.0
  0
LINE
  5
326
330
6F
100
AcDbEntity
  8
_4-E_文字
  6
Continuous
 62
     4
100
AcDbLine
 10
66.1568655591733
 20
206.5870306489694
 30
0.0
 11
59.882409029636
 21
206.5870306489694
 31
0.0
  0
LINE
  5
327
330
6F
100
AcDbEntity
  8
_4-E_文字
  6
Continuous
 62
     4
100
AcDbLine
 10
158.0634731136778
 20
203.9424971471248
 30
0.0
 11
158.0634731136778
 21
206.5413716579504
 31
0.0
  0
LINE
  5
328
330
6F
100
AcDbEntity
  8
_4-E_文字
  6
Continuous
 62
     4
100
AcDbLine
 10
158.0634731136778
 20
206.5413716579504
 30
0.0
 11
164.337929643215
 21
206.5413716579504
 31
0.0
  0
LINE
  5
329
330
6F
100
AcDbEntity
  8
_4-E_文字
  6
Continuous
 62
     4
100
AcDbLine
 10
164.337929643215
 20
206.5413716579504
 30
0.0
 11
164.337929643215
 21
203.9424971471248
 31
0.0
  0
LINE
  5
32A
330
6F
100
AcDbEntity
  8
_4-E_文字
  6
Continuous
 62
     4
100
AcDbLine
 10
164.337929643215
 20
203.9424971471248
 30
0.0
 11
158.0634731136778
 21
203.9424971471248
 31
0.0
  0
LINE
  5
32B
330
6F
100
AcDbEntity
  8
_4-E_文字
  6
Continuous
 62
     4
100
AcDbLine
 10
102.65905982206
 20
104.3395460913841
 30
0.0
 11
104.9643181778598
 21
100.3467214945663
 31
0.0
  0
LINE
  5
32C
330
6F
100
AcDbEntity
  8
_4-E_文字
  6
Continuous
 62
     4
100
AcDbLine
 10
104.9643181778598
 20
100.3467214945663
 30
0.0
 11
105.9044720545423
 21
100.3467214945663
 31
0.0
  0
LINE
  5
32D
330
6F
100
AcDbEntity
  8
_4-E_文字
  6
Continuous
 62
     4
100
AcDbLine
 10
106.0057160679236
 20
99.06876732410664
 30
0.0
 11
106.0057160679236
 21
101.6676418349322
 31
0.0
  0
LINE
  5
32E
330
6F
100
AcDbEntity
  8
_4-E_文字
  6
Continuous
 62
     4
100
AcDbLine
 10
106.0057160679236
 20
101.6676418349322
 30
0.0
 11
112.2801725974609
 21
101.6676418349322
 31
0.0
  0
LINE
  5
32F
330
6F
100
AcDbEntity
  8
_4-E_文字
  6
Continuous
 62
     4
100
AcDbLine
 10
112.2801725974609
 20
101.6676418349322
 30
0.0
 11
112.2801725974609
 21
99.06876732410664
 31
0.0
  0
LINE
  5
330
330
6F
100
AcDbEntity
  8
_4-E_文字
  6
Continuous
 62
     4
100
AcDbLine
 10
112.2801725974609
 20
99.06876732410664
 30
0.0
 11
106.0057160679236
 21
99.06876732410664
 31
0.0
  0
LINE
  5
331
330
6F
100
AcDbEntity
  8
_4-E_文字
  6
Continuous
 62
     4
100
AcDbLine
 10
142.5604204476406
 20
124.1503327283726
 30
0.0
 11
126.8972323048698
 21
137.8200241984271
 31
0.0
  0
LINE
  5
332
330
6F
100
AcDbEntity
  8
_4-E_文字
  6
Continuous
 62
     4
100
AcDbLine
 10
126.8972323048698
 20
137.8200241984271
 30
0.0
 11
128.6931017462622
 21
136.9397668783932
 31
0.0
  0
LINE
  5
333
330
6F
100
AcDbEntity
  8
_4-E_文字
  6
Continuous
 62
     4
100
AcDbLine
 10
126.8972323048698
 20
137.8200241984271
 30
0.0
 11
128.0123722029788
 21
136.1597642767144
 31
0.0
  0
LINE
  5
334
330
6F
100
AcDbEntity
  8
_4-E_文字
  6
Continuous
 62
     4
100
AcDbLine
 10
143.0825129173375
 20
69.4667528240075
 30
0.0
 11
144.02266679402
 21
69.4667528240075
 31
0.0
  0
LINE
  5
335
330
6F
100
AcDbEntity
  8
_4-E_文字
  6
Continuous
 62
     4
100
AcDbLine
 10
144.1239108074013
 20
68.18879865354775
 30
0.0
 11
144.1239108074013
 21
70.78767316437337
 31
0.0
  0
LINE
  5
336
330
6F
100
AcDbEntity
  8
_4-E_文字
  6
Continuous
 62
     4
100
AcDbLine
 10
144.1239108074013
 20
70.78767316437337
 30
0.0
 11
150.3983673369386
 21
70.78767316437337
 31
0.0
  0
LINE
  5
337
330
6F
100
AcDbEntity
  8
_4-E_文字
  6
Continuous
 62
     4
100
AcDbLine
 10
150.3983673369386
 20
70.78767316437337
 30
0.0
 11
150.3983673369386
 21
68.18879865354775
 31
0.0
  0
LINE
  5
338
330
6F
100
AcDbEntity
  8
_4-E_文字
  6
Continuous
 62
     4
100
AcDbLine
 10
150.3983673369386
 20
68.18879865354775
 30
0.0
 11
144.1239108074013
 21
68.18879865354775
 31
0.0
  0
LINE
  5
339
330
6F
100
AcDbEntity
  8
_4-E_文字
  6
Continuous
 62
     4
100
AcDbLine
 10
137.5764797396277
 20
98.63266809989713
 30
0.0
 11
116.9730356309509
 21
95.85885870793356
 31
0.0
  0
LINE
  5
33A
330
6F
100
AcDbEntity
  8
_4-E_文字
  6
Continuous
 62
     4
100
AcDbLine
 10
116.9730356309509
 20
95.85885870793356
 30
0.0
 11
118.8185487907556
 21
96.62962532435379
 31
0.0
  0
LINE
  5
33B
330
6F
100
AcDbEntity
  8
_4-E_文字
  6
Continuous
 62
     4
100
AcDbLine
 10
116.9730356309509
 20
95.85885870793356
 30
0.0
 11
118.9566802185704
 21
95.60360559824017
 31
0.0
  0
LINE
  5
33C
330
6F
100
AcDbEntity
  8
_4-E_文字
  6
Continuous
 62
     4
100
AcDbLine
 10
163.9804164097796
 20
179.8187060942917
 30
0.0
 11
161.5080392795981
 21
200.4604908768261
 31
0.0
  0
LINE
  5
33D
330
6F
100
AcDbEntity
  8
_4-E_文字
  6
Continuous
 62
     4
100
AcDbLine
 10
161.5080392795981
 20
200.4604908768261
 30
0.0
 11
162.2517499002597
 21
198.6039094720083
 31
0.0
  0
LINE
  5
33E
330
6F
100
AcDbEntity
  8
_4-E_文字
  6
Continuous
 62
     4
100
AcDbLine
 10
161.5080392795981
 20
200.4604908768261
 30
0.0
 11
161.2238208677465
 21
198.4807889057293
 31
0.0
  0
LINE
  5
33F
330
6F
100
AcDbEntity
  8
_4-4_見え掛り
  6
CENTER2
 62
     5
100
AcDbLine
 10
43.17778915377092
 20
237.2727272727273
 30
0.0
 11
148.1777891537709
 21
237.2727272727273
 31
0.0
  0
LINE
  5
340
330
6F
100
AcDbEntity
  8
_4-4_見え掛り
  6
Continuous
 62
     5
100
AcDbLine
 10
146.4463786046942
 20
251.7011485150335
 30
0.0
 11
148.2969343743894
 21
236.2798504342404
 31
0.0
  0
LINE
  5
341
330
6F
100
AcDbEntity
  8
_4-4_見え掛り
  6
Continuous
 62
     5
100
AcDbLine
 10
148.2969343743894
 20
236.2798504342404
 30
0.0
 11
161.1266889873612
 21
129.3652286594744
 31
0.0
  0
LINE
  5
342
330
6F
100
AcDbEntity
  8
ADD_LINE
  6
DOT
 62
     5
100
AcDbLine
 10
56.26869824468002
 20
102.2727272727273
 30
0.0
 11
25.99597097195275
 21
102.2727272727273
 31
0.0
  0
CIRCLE
  5
343
330
6F
100
AcDbEntity
  8
_4-6_建具
  6
Continuous
 62
     5
100
AcDbCircle
 10
182.6491081660465
 20
263.0632667593257
 30
0.0
 40
7.5
  0
ARC
  5
344
330
6F
100
AcDbEntity
  8
_4-6_建具
  6
Continuous
 62
     5
100
AcDbCircle
 10
181.5169245632444
 20
250.1223489629696
 30
0.0
 40
7.5
100
AcDbArc
 50
54.99999999999998
 51
114.9999999999999
  0
LINE
  5
345
330
6F
100
AcDbEntity
  8
_4-6_建具
  6
Continuous
 62
     5
100
AcDbLine
 10
178.347282324793
 20
256.9195970676899
 30
0.0
 11
183.3027762366539
 21
270.5347269950137
 31
0.0
  0
LINE
  5
346
330
6F
100
AcDbEntity
  8
_4-6_建具
  6
Continuous
 62
     5
100
AcDbLine
 10
185.8187425604811
 20
256.2659289970825
 30
0.0
 11
183.3027762366539
 21
270.5347269950137
 31
0.0
  0
LINE
  5
347
330
6F
100
AcDbEntity
  8
_4-6_建具
  6
Continuous
 62
     5
100
AcDbLine
 10
182.7704262248596
 20
271.3341664642312
 30
0.0
 11
182.9011598389811
 21
272.8284585113688
 31
0.0
  0
LINE
  5
348
330
6F
100
AcDbEntity
  8
_4-6_建具
  6
Continuous
 62
     5
100
AcDbLine
 10
182.9011598389811
 20
272.8284585113688
 30
0.0
 11
183.9658598625696
 21
271.229579572934
 31
0.0
  0
LINE
  5
349
330
6F
100
AcDbEntity
  8
_4-6_建具
  6
Continuous
 62
     5
100
AcDbLine
 10
183.9658598625696
 20
271.229579572934
 30
0.0
 11
184.0965934766911
 21
272.7238716200716
 31
0.0
  0
LINE
  5
34A
330
6F
100
AcDbEntity
  8
_4-4_見え掛り
  6
Continuous
 62
     5
100
AcDbLine
 10
54.67778915377093
 20
149.5727272727272
 30
0.0
 11
120.977789153771
 21
149.5727272727272
 31
0.0
  0
LINE
  5
34B
330
6F
100
AcDbEntity
  8
_4-4_見え掛り
  6
Continuous
 62
     5
100
AcDbLine
 10
54.67778915377095
 20
196.7727272727272
 30
0.0
 11
54.67778915377093
 21
149.5727272727272
 31
0.0
  0
LINE
  5
34C
330
6F
100
AcDbEntity
  8
_4-4_見え掛り
  6
Continuous
 62
     5
100
AcDbLine
 10
54.67778915377095
 20
196.7727272727272
 30
0.0
 11
120.9777891537709
 21
196.7727272727272
 31
0.0
  0
LINE
  5
34D
330
6F
100
AcDbEntity
  8
_4-4_見え掛り
  6
Continuous
 62
     5
100
AcDbLine
 10
120.977789153771
 20
196.7727272727272
 30
0.0
 11
120.977789153771
 21
149.5727272727272
 31
0.0
  0
LINE
  5
34E
330
6F
100
AcDbEntity
  8
_4-4_見え掛り
  6
Continuous
 62
     5
100
AcDbLine
 10
60.10278915377097
 20
190.8477272727272
 30
0.0
 11
115.5527891537709
 21
190.8477272727272
 31
0.0
  0
LINE
  5
34F
330
6F
100
AcDbEntity
  8
_4-4_見え掛り
  6
Continuous
 62
     5
100
AcDbLine
 10
60.10278915377097
 20
190.8477272727272
 30
0.0
 11
60.10278915377097
 21
155.4977272727272
 31
0.0
  0
LINE
  5
350
330
6F
100
AcDbEntity
  8
_4-4_見え掛り
  6
Continuous
 62
     5
100
AcDbLine
 10
60.10278915377097
 20
155.4977272727272
 30
0.0
 11
115.5527891537709
 21
155.4977272727272
 31
0.0
  0
LINE
  5
351
330
6F
100
AcDbEntity
  8
_4-4_見え掛り
  6
Continuous
 62
     5
100
AcDbLine
 10
114.6992357631777
 20
190.8477272727272
 30
0.0
 11
120.6242357631777
 21
196.7727272727272
 31
0.0
  0
LINE
  5
352
330
6F
100
AcDbEntity
  8
_4-4_見え掛り
  6
Continuous
 62
     5
100
AcDbLine
 10
115.4795658490676
 20
190.9209505774306
 30
0.0
 11
120.977789153771
 21
196.419173882134
 31
0.0
  0
LINE
  5
353
330
6F
100
AcDbEntity
  8
_4-4_見え掛り
  6
Continuous
 62
     5
100
AcDbLine
 10
115.4063425443642
 20
155.4977272727272
 30
0.0
 11
120.977789153771
 21
149.9262806633204
 31
0.0
  0
LINE
  5
354
330
6F
100
AcDbEntity
  8
_4-4_見え掛り
  6
Continuous
 62
     5
100
AcDbLine
 10
120.6242357631777
 20
149.5727272727272
 30
0.0
 11
114.6992357631777
 21
155.4977272727272
 31
0.0
  0
LINE
  5
355
330
6F
100
AcDbEntity
  8
_4-4_見え掛り
  6
Continuous
 62
     5
100
AcDbLine
 10
60.95634254436426
 20
190.8477272727272
 30
0.0
 11
55.03134254436425
 21
196.7727272727272
 31
0.0
  0
LINE
  5
356
330
6F
100
AcDbEntity
  8
_4-4_見え掛り
  6
Continuous
 62
     5
100
AcDbLine
 10
60.2492357631777
 20
190.8477272727272
 30
0.0
 11
54.67778915377095
 21
196.419173882134
 31
0.0
  0
LINE
  5
357
330
6F
100
AcDbEntity
  8
_4-4_見え掛り
  6
Continuous
 62
     5
100
AcDbLine
 10
54.67778915377093
 20
149.9262806633204
 30
0.0
 11
60.2492357631777
 21
155.4977272727272
 31
0.0
  0
LINE
  5
358
330
6F
100
AcDbEntity
  8
_4-4_見え掛り
  6
Continuous
 62
     5
100
AcDbLine
 10
60.95634254436426
 20
155.4977272727272
 30
0.0
 11
55.03134254436425
 21
149.5727272727272
 31
0.0
  0
LINE
  5
359
330
6F
100
AcDbEntity
  8
_4-4_見え掛り
  6
Continuous
 62
     5
100
AcDbLine
 10
61.35278915377097
 20
173.9227272727272
 30
0.0
 11
61.35278915377097
 21
172.4227272727272
 31
0.0
  0
LINE
  5
35A
330
6F
100
AcDbEntity
  8
_4-4_見え掛り
  6
Continuous
 62
     5
100
AcDbLine
 10
61.60278915377097
 20
173.9227272727272
 30
0.0
 11
61.60278915377097
 21
172.4227272727272
 31
0.0
  0
LINE
  5
35B
330
6F
100
AcDbEntity
  8
_4-4_見え掛り
  6
Continuous
 62
     5
100
AcDbLine
 10
61.35278915377097
 20
172.9727272727273
 30
0.0
 11
60.01676377682917
 21
172.9727272727273
 31
0.0
  0
LINE
  5
35C
330
6F
100
AcDbEntity
  8
_4-4_見え掛り
  6
Continuous
 62
     5
100
AcDbLine
 10
61.35278915377097
 20
173.3727272727272
 30
0.0
 11
60.01676377682917
 21
173.3727272727272
 31
0.0
  0
LINE
  5
35D
330
6F
100
AcDbEntity
  8
_4-4_見え掛り
  6
Continuous
 62
     5
100
AcDbLine
 10
114.3027891537709
 20
173.9227272727272
 30
0.0
 11
114.3027891537709
 21
172.4227272727272
 31
0.0
  0
LINE
  5
35E
330
6F
100
AcDbEntity
  8
_4-4_見え掛り
  6
Continuous
 62
     5
100
AcDbLine
 10
114.0527891537709
 20
173.9227272727272
 30
0.0
 11
114.0527891537709
 21
172.4227272727272
 31
0.0
  0
LINE
  5
35F
330
6F
100
AcDbEntity
  8
_4-4_見え掛り
  6
Continuous
 62
     5
100
AcDbLine
 10
114.3027891537709
 20
172.9727272727273
 30
0.0
 11
115.6388145307127
 21
172.9727272727273
 31
0.0
  0
LINE
  5
360
330
6F
100
AcDbEntity
  8
_4-4_見え掛り
  6
Continuous
 62
     5
100
AcDbLine
 10
114.3027891537709
 20
173.3727272727272
 30
0.0
 11
115.6388145307127
 21
173.3727272727272
 31
0.0
  0
LINE
  5
361
330
6F
100
AcDbEntity
  8
_4-4_見え掛り
  6
Continuous
 62
     5
100
AcDbLine
 10
114.3027891537709
 20
173.9227272727272
 30
0.0
 11
61.35278915377097
 21
173.9227272727272
 31
0.0
  0
LINE
  5
362
330
6F
100
AcDbEntity
  8
_4-4_見え掛り
  6
Continuous
 62
     5
100
AcDbLine
 10
114.3027891537709
 20
172.4227272727272
 30
0.0
 11
61.35278915377097
 21
172.4227272727272
 31
0.0
  0
LINE
  5
363
330
6F
100
AcDbEntity
  8
_4-4_見え掛り
  6
Continuous
 62
     5
100
AcDbLine
 10
125.2410235418382
 20
87.3774872579222
 30
0.0
 11
152.038306452402
 21
90.15676963104885
 31
0.0
  0
LINE
  5
364
330
6F
100
AcDbEntity
  8
_4-4_見え掛り
  6
Continuous
 62
     5
100
AcDbLine
 10
84.91999287208544
 20
83.84910221756493
 30
0.0
 11
125.2185339994764
 21
87.37291074143742
 31
0.0
  0
LINE
  5
365
330
6F
100
AcDbEntity
  8
_4-4_見え掛り
  6
Continuous
 62
     5
100
AcDbLine
 10
178.4471970630501
 20
119.3652286594744
 30
0.0
 11
168.0626910499778
 21
101.3787366333288
 31
0.0
  0
LINE
  5
366
330
6F
100
AcDbEntity
  8
_4-4_見え掛り
  6
Continuous
 62
     5
100
AcDbLine
 10
168.0626910499778
 20
101.3787366333288
 30
0.0
 11
167.2955801400235
 21
100.0500615622475
 31
0.0
  0
LINE
  5
367
330
6F
100
AcDbEntity
  8
_4-4_見え掛り
  6
CENTER2
 62
     5
100
AcDbLine
 10
43.17778915377092
 20
237.2727272727273
 30
0.0
 11
43.17778915377092
 21
102.2727272727273
 31
0.0
  0
ARC
  5
368
330
6F
100
AcDbEntity
  8
_4-4_見え掛り
  6
Continuous
 62
     5
100
AcDbCircle
 10
148.0225433190167
 20
113.0612195931069
 30
0.0
 40
23.25382079590103
100
AcDbArc
 50
279.944410464449
 51
325.9768551955642
  0
ARC
  5
369
330
6F
100
AcDbEntity
  8
_4-4_見え掛り
  6
Continuous
 62
     5
100
AcDbCircle
 10
137.6220661043729
 20
134.1808923124534
 30
0.0
 40
43.43034891952099
100
AcDbArc
 50
340.0538881290293
 51
356.7888852836016
  0
CIRCLE
  5
36A
330
6F
100
AcDbEntity
  8
_4-4_見え掛り
  6
Continuous
 62
     5
100
AcDbCircle
 10
148.1777891537709
 20
237.2727272727273
 30
0.0
 40
1.0
  0
CIRCLE
  5
36B
330
6F
100
AcDbEntity
  8
_4-4_見え掛り
  6
Continuous
 62
     5
100
AcDbCircle
 10
43.17778915377092
 20
237.2727272727273
 30
0.0
 40
1.0
  0
CIRCLE
  5
36C
330
6F
100
AcDbEntity
  8
_4-4_見え掛り
  6
Continuous
 62
     5
100
AcDbCircle
 10
43.17778915377092
 20
102.2727272727273
 30
0.0
 40
1.0
  0
CIRCLE
  5
36D
330
6F
100
AcDbEntity
  8
_4-4_見え掛り
  6
Continuous
 62
     5
100
AcDbCircle
 10
149.9750720643348
 20
110.0500615622475
 30
0.0
 40
1.0
  0
CIRCLE
  5
36E
330
6F
100
AcDbEntity
  8
_4-4_見え掛り
  6
Continuous
 62
     5
100
AcDbCircle
 10
161.1266889873612
 20
129.3652286594744
 30
0.0
 40
1.0
  0
CIRCLE
  5
36F
330
6F
100
AcDbEntity
  8
_4-4_見え掛り
  6
Continuous
 62
     5
100
AcDbCircle
 10
123.1777891537709
 20
107.2707791891209
 30
0.0
 40
1.0
  0
CIRCLE
  5
370
330
6F
100
AcDbEntity
  8
_4-4_見え掛り
  6
Continuous
 62
     5
100
AcDbCircle
 10
83.17778915377093
 20
103.7730758725337
 30
0.0
 40
1.0
  0
LINE
  5
371
330
6F
100
AcDbEntity
  8
_4-4_見え掛り
  6
Continuous
 62
     5
100
AcDbLine
 10
83.17778915377093
 20
103.7730758725337
 30
0.0
 11
123.4763302811618
 21
107.2968843964062
 31
0.0
  0
LINE
  5
372
330
6F
100
AcDbEntity
  8
_4-4_見え掛り
  6
Continuous
 62
     5
100
AcDbLine
 10
123.1777891537709
 20
107.2707791891209
 30
0.0
 11
149.9750720643348
 21
110.0500615622475
 31
0.0
  0
LINE
  5
373
330
6F
100
AcDbEntity
  8
_4-4_見え掛り
  6
Continuous
 62
     5
100
AcDbLine
 10
161.1266889873612
 20
129.3652286594744
 30
0.0
 11
149.9750720643348
 21
110.0500615622475
 31
0.0
  0
LINE
  5
374
330
6F
100
AcDbEntity
  8
_4-4_見え掛り
  6
Continuous
 62
     5
100
AcDbLine
 10
30.06093285889168
 20
81.76666675629141
 30
0.0
 11
44.92603137124882
 21
82.32423749976637
 31
0.0
  0
LINE
  5
375
330
6F
100
AcDbEntity
  8
_4-4_見え掛り
  6
Continuous
 62
     5
100
AcDbLine
 10
44.92603137124882
 20
82.32423749976637
 30
0.0
 11
84.55718712262534
 21
83.81075122577362
 31
0.0
  0
LINE
  5
376
330
6F
100
AcDbEntity
  8
_4-4_見え掛り
  6
Continuous
 62
     5
100
AcDbLine
 10
29.31128571431035
 20
101.7526125472371
 30
0.0
 11
44.17604539085715
 21
102.3101705814163
 31
0.0
  0
LINE
  5
377
330
6F
100
AcDbEntity
  8
_4-4_見え掛り
  6
Continuous
 62
     5
100
AcDbLine
 10
44.17604539085715
 20
102.3101705814163
 30
0.0
 11
83.80753997804401
 21
103.7966970167193
 31
0.0
  0
LINE
  5
378
330
6F
100
AcDbEntity
  8
_4-4_見え掛り
  6
Continuous
 62
     5
100
AcDbLine
 10
166.3039153744326
 20
254.0840529274021
 30
0.0
 11
168.0353259235093
 21
239.6556316850959
 31
0.0
  0
LINE
  5
379
330
6F
100
AcDbEntity
  8
_4-4_見え掛り
  6
Continuous
 62
     5
100
AcDbLine
 10
168.0353259235093
 20
239.6556316850959
 30
0.0
 11
180.9842257570997
 21
131.748133071843
 31
0.0
  0
LINE
  5
37A
330
6F
100
AcDbEntity
  8
_4-4_見え掛り
  6
Continuous
 62
     5
100
AcDbLine
 10
115.5527891537709
 20
190.8477272727272
 30
0.0
 11
115.5527891537709
 21
155.4977272727272
 31
0.0
  0
LINE
  5
37B
330
6F
100
AcDbEntity
  8
ADD_LINE
  6
DOT
 62
     5
100
AcDbLine
 10
148.1777891537709
 20
244.6363636363636
 30
0.0
 11
148.1777891537709
 21
228.4759550407453
 31
0.0
  0
CIRCLE
  5
37C
330
6F
100
AcDbEntity
  8
_4-4_見え掛り
 62
     4
100
AcDbCircle
 10
69.74384901533284
 20
103.2691895347036
 30
0.0
 40
0.4
  0
CIRCLE
  5
37D
330
6F
100
AcDbEntity
  8
_4-4_見え掛り
 62
     4
100
AcDbCircle
 10
70.49349619228269
 20
83.28324288079725
 30
0.0
 40
0.4
  0
LINE
  5
37E
330
6F
100
AcDbEntity
  8
_4-4_見え掛り
  6
Continuous
 62
     4
100
AcDbLine
 10
69.74384901533284
 20
103.2691895347036
 30
0.0
 11
75.73574864592328
 21
103.493937990227
 31
0.0
  0
LINE
  5
37F
330
6F
100
AcDbEntity
  8
_4-4_見え掛り
  6
Continuous
 62
     4
100
AcDbLine
 10
70.49349619228269
 20
83.28324288079725
 30
0.0
 11
76.48539582287317
 21
83.50799133632067
 31
0.0
  0
LINE
  5
380
330
6F
100
AcDbEntity
  8
_4-D_寸法
  6
Continuous
 62
    18
100
AcDbLine
 10
69.74384901533284
 20
103.2691895347036
 30
0.0
 11
70.49349619228269
 21
83.28324288079725
 31
0.0
  0
TEXT
  5
381
330
6F
100
AcDbEntity
  8
_4-4_見え掛り
 62
     3
100
AcDbText
 10
70.51337064834001
 20
96.09298979709736
 30
0.0
 40
2.5
  1
4,000
 50
272.148084059377
 41
0.8
100
AcDbText
  0
CIRCLE
  5
382
330
6F
100
AcDbEntity
  8
_4-4_見え掛り
 62
     4
100
AcDbCircle
 10
156.9125490004639
 20
164.4830581959235
 30
0.0
 40
0.4
  0
CIRCLE
  5
383
330
6F
100
AcDbEntity
  8
_4-4_見え掛り
 62
     4
100
AcDbCircle
 10
176.7700891536424
 20
166.8659630143049
 30
0.0
 40
0.4
  0
LINE
  5
384
330
6F
100
AcDbEntity
  8
_4-4_見え掛り
  6
Continuous
 62
     4
100
AcDbLine
 10
156.9125490004639
 20
164.4830581959235
 30
0.0
 11
156.3395111050041
 21
169.2583739914219
 31
0.0
  0
LINE
  5
385
330
6F
100
AcDbEntity
  8
_4-4_見え掛り
  6
Continuous
 62
     4
100
AcDbLine
 10
176.7700891536424
 20
166.8659630143049
 30
0.0
 11
176.1970512581826
 21
171.6412788098033
 31
0.0
  0
LINE
  5
386
330
6F
100
AcDbEntity
  8
_4-D_寸法
  6
Continuous
 62
    18
100
AcDbLine
 10
156.9125490004639
 20
164.4830581959235
 30
0.0
 11
176.7700891536424
 21
166.8659630143049
 31
0.0
  0
TEXT
  5
387
330
6F
100
AcDbEntity
  8
_4-4_見え掛り
 62
     3
100
AcDbText
 10
164.0016913189806
 20
165.8373424066261
 30
0.0
 40
2.5
  1
4,000
 50
6.842773412630918
 41
0.8
100
AcDbText
  0
CIRCLE
  5
388
330
6F
100
AcDbEntity
  8
_4-D_寸法
 62
     4
100
AcDbCircle
 10
148.1777891537709
 20
249.0868624987054
 30
0.0
 40
0.4
  0
CIRCLE
  5
389
330
6F
100
AcDbEntity
  8
_4-D_寸法
 62
     4
100
AcDbCircle
 10
116.4777891537709
 20
249.0868624987054
 30
0.0
 40
0.4
  0
LINE
  5
38A
330
6F
100
AcDbEntity
  8
_4-D_寸法
  6
Continuous
 62
     4
100
AcDbLine
 10
148.1777891537709
 20
249.0868624987054
 30
0.0
 11
148.1777891537709
 21
242.8321667811998
 31
0.0
  0
LINE
  5
38B
330
6F
100
AcDbEntity
  8
_4-D_寸法
  6
Continuous
 62
     4
100
AcDbLine
 10
116.4777891537709
 20
249.0868624987054
 30
0.0
 11
116.4777891537709
 21
242.8321667811998
 31
0.0
  0
LINE
  5
38C
330
6F
100
AcDbEntity
  8
_4-C_ハッチ
  6
Continuous
 62
    18
100
AcDbLine
 10
148.1777891537709
 20
249.0868624987054
 30
0.0
 11
116.4777891537709
 21
249.0868624987054
 31
0.0
  0
TEXT
  5
38D
330
6F
100
AcDbEntity
  8
_4-D_寸法
 62
     3
100
AcDbText
 10
129.5277891537709
 20
249.5868624987054
 30
0.0
 40
2.5
  1
6,340
 41
0.8
100
AcDbText
  0
CIRCLE
  5
38E
330
6F
100
AcDbEntity
  8
_4-D_寸法
 62
     4
100
AcDbCircle
 10
59.17778915377096
 20
249.0868624987054
 30
0.0
 40
0.4
  0
LINE
  5
38F
330
6F
100
AcDbEntity
  8
_4-D_寸法
  6
Continuous
 62
     4
100
AcDbLine
 10
59.17778915377096
 20
249.0868624987054
 30
0.0
 11
59.17778915377096
 21
242.8321667811998
 31
0.0
  0
LINE
  5
390
330
6F
100
AcDbEntity
  8
_4-C_ハッチ
  6
Continuous
 62
    18
100
AcDbLine
 10
116.4777891537709
 20
249.0868624987054
 30
0.0
 11
59.17778915377096
 21
249.0868624987054
 31
0.0
  0
TEXT
  5
391
330
6F
100
AcDbEntity
  8
_4-D_寸法
 62
     3
100
AcDbText
 10
84.45278915377093
 20
249.5868624987054
 30
0.0
 40
2.5
  1
11,460
 41
0.8
100
AcDbText
  0
CIRCLE
  5
392
330
6F
100
AcDbEntity
  8
_4-D_寸法
 62
     4
100
AcDbCircle
 10
43.17778915377092
 20
249.0868624987054
 30
0.0
 40
0.4
  0
LINE
  5
393
330
6F
100
AcDbEntity
  8
_4-D_寸法
  6
Continuous
 62
     4
100
AcDbLine
 10
43.17778915377092
 20
249.0868624987054
 30
0.0
 11
43.17778915377092
 21
242.8321667811998
 31
0.0
  0
LINE
  5
394
330
6F
100
AcDbEntity
  8
_4-C_ハッチ
  6
Continuous
 62
    18
100
AcDbLine
 10
59.17778915377096
 20
249.0868624987054
 30
0.0
 11
43.17778915377092
 21
249.0868624987054
 31
0.0
  0
TEXT
  5
395
330
6F
100
AcDbEntity
  8
_4-D_寸法
 62
     3
100
AcDbText
 10
48.37778915377096
 20
249.5868624987054
 30
0.0
 40
2.5
  1
3,200
 41
0.8
100
AcDbText
  0
CIRCLE
  5
396
330
6F
100
AcDbEntity
  8
_4-D_寸法
 62
     4
100
AcDbCircle
 10
25.34520970536958
 20
237.2727272727273
 30
0.0
 40
0.4
  0
CIRCLE
  5
397
330
6F
100
AcDbEntity
  8
_4-D_寸法
 62
     4
100
AcDbCircle
 10
25.34520970536958
 20
192.2727272727272
 30
0.0
 40
0.4
  0
LINE
  5
398
330
6F
100
AcDbEntity
  8
_4-D_寸法
  6
Continuous
 62
     4
100
AcDbLine
 10
25.34520970536958
 20
237.2727272727273
 30
0.0
 11
34.66373583583095
 21
237.2727272727273
 31
0.0
  0
LINE
  5
399
330
6F
100
AcDbEntity
  8
_4-D_寸法
  6
Continuous
 62
     4
100
AcDbLine
 10
25.34520970536958
 20
192.2727272727272
 30
0.0
 11
34.66373583583095
 21
192.2727272727272
 31
0.0
  0
LINE
  5
39A
330
6F
100
AcDbEntity
  8
_4-C_ハッチ
  6
Continuous
 62
    18
100
AcDbLine
 10
25.34520970536958
 20
237.2727272727273
 30
0.0
 11
25.34520970536958
 21
192.2727272727272
 31
0.0
  0
TEXT
  5
39B
330
6F
100
AcDbEntity
  8
_4-D_寸法
 62
     3
100
AcDbText
 10
24.84520970536957
 20
211.9727272727273
 30
0.0
 40
2.5
  1
9,000
 50
90.0
 41
0.8
100
AcDbText
  0
CIRCLE
  5
39C
330
6F
100
AcDbEntity
  8
_4-D_寸法
 62
     4
100
AcDbCircle
 10
25.34520970536958
 20
154.0727272727272
 30
0.0
 40
0.4
  0
LINE
  5
39D
330
6F
100
AcDbEntity
  8
_4-D_寸法
  6
Continuous
 62
     4
100
AcDbLine
 10
25.34520970536958
 20
154.0727272727272
 30
0.0
 11
34.66373583583095
 21
154.0727272727272
 31
0.0
  0
LINE
  5
39E
330
6F
100
AcDbEntity
  8
_4-C_ハッチ
  6
Continuous
 62
    18
100
AcDbLine
 10
25.34520970536958
 20
192.2727272727272
 30
0.0
 11
25.34520970536958
 21
154.0727272727272
 31
0.0
  0
TEXT
  5
39F
330
6F
100
AcDbEntity
  8
_4-D_寸法
 62
     3
100
AcDbText
 10
24.84520970536957
 20
170.3727272727272
 30
0.0
 40
2.5
  1
7,640
 50
90.0
 41
0.8
100
AcDbText
  0
CIRCLE
  5
3A0
330
6F
100
AcDbEntity
  8
_4-D_寸法
 62
     4
100
AcDbCircle
 10
25.34520970536958
 20
102.2727272727273
 30
0.0
 40
0.4
  0
LINE
  5
3A1
330
6F
100
AcDbEntity
  8
_4-D_寸法
  6
Continuous
 62
     4
100
AcDbLine
 10
25.34520970536958
 20
102.2727272727273
 30
0.0
 11
34.66373583583095
 21
102.2727272727273
 31
0.0
  0
LINE
  5
3A2
330
6F
100
AcDbEntity
  8
_4-C_ハッチ
  6
Continuous
 62
    18
100
AcDbLine
 10
25.34520970536958
 20
154.0727272727272
 30
0.0
 11
25.34520970536958
 21
102.2727272727273
 31
0.0
  0
TEXT
  5
3A3
330
6F
100
AcDbEntity
  8
_4-D_寸法
 62
     3
100
AcDbText
 10
24.84520970536957
 20
124.7977272727272
 30
0.0
 40
2.5
  1
10,360
 50
90.0
 41
0.8
100
AcDbText
  0
TEXT
  5
3A4
330
6F
100
AcDbEntity
  8
_4-4_見え掛り
 62
     3
100
AcDbText
 10
100.894129689111
 20
238.4645614601
 30
0.0
 40
2.5
  1
21.00ｍ
 41
0.5999999999999999
100
AcDbText
  0
TEXT
  5
3A5
330
6F
100
AcDbEntity
  8
_4-4_見え掛り
 62
     3
100
AcDbText
 10
157.5660217371964
 20
186.7093959865048
 30
0.0
 40
2.5
  1
21.74ｍ
 50
96.84277341263092
 41
0.5999999999999999
100
AcDbText
  0
TEXT
  5
3A6
330
6F
100
AcDbEntity
  8
_4-4_見え掛り
 62
     3
100
AcDbText
 10
157.20911045879
 20
117.3033767084511
 30
0.0
 40
2.5
  1
4.46ｍ
 50
59.99999999999989
 41
0.5999999999999999
100
AcDbText
  0
TEXT
  5
3A7
330
6F
100
AcDbEntity
  8
_4-4_見え掛り
 62
     3
100
AcDbText
 10
134.1270777512792
 20
105.7831974389178
 30
0.0
 40
2.5
  1
5.39ｍ
 50
5.921265660013239
 41
0.5999999999999999
100
AcDbText
  0
TEXT
  5
3A8
330
6F
100
AcDbEntity
  8
_4-4_見え掛り
 62
     3
100
AcDbText
 10
61.37849184713088
 20
100.0473100626685
 30
0.0
 40
2.5
  1
8.01ｍ
 50
2.148084059376846
 41
0.5999999999999999
100
AcDbText
  0
TEXT
  5
3A9
330
6F
100
AcDbEntity
  8
_4-4_見え掛り
 62
     3
100
AcDbText
 10
42.68012655599171
 20
186.5019376136669
 30
0.0
 40
2.5
  1
27.00ｍ
 50
90.0
 41
0.5999999999999999
100
AcDbText
  0
TEXT
  5
3AA
330
6F
100
AcDbEntity
  8
_4-4_見え掛り
 62
     3
100
AcDbText
 10
104.5563324777335
 20
102.7642485598207
 30
0.0
 40
2.5
  1
8.03ｍ
 50
4.997379820000022
 41
0.5999999999999999
100
AcDbText
  0
ENDSEC
  0
SECTION
  2
OBJECTS
  0
DICTIONARY
  5
C
330
0
100
AcDbDictionary
281
     1
  3
ACAD_COLOR
350
62
  3
ACAD_DETAILVIEWSTYLE
350
69
  3
ACAD_GROUP
350
D
  3
ACAD_LAYOUT
350
61
  3
ACAD_MATERIAL
350
10
  3
ACAD_MLEADERSTYLE
350
65
  3
ACAD_MLINESTYLE
350
5E
  3
ACAD_PLOTSETTINGS
350
60
  3
ACAD_PLOTSTYLENAME
350
E
  3
ACAD_SCALELIST
350
42
  3
ACAD_SECTIONVIEWSTYLE
350
67
  3
ACAD_TABLESTYLE
350
63
  3
ACAD_VISUALSTYLE
350
29
  3
ACDB_RECOMPOSE_DATA
350
3B7
  3
AcDbVariableDictionary
350
3AB
  0
DICTIONARY
  5
62
102
{ACAD_REACTORS
330
C
102
}
330
C
100
AcDbDictionary
281
     1
  0
DICTIONARY
  5
69
102
{ACAD_REACTORS
330
C
102
}
330
C
100
AcDbDictionary
281
     1
  3
Imperial24
350
6A
  0
DICTIONARY
  5
D
102
{ACAD_REACTORS
330
C
102
}
330
C
100
AcDbDictionary
281
     1
  0
DICTIONARY
  5
61
102
{ACAD_REACTORS
330
C
102
}
330
C
100
AcDbDictionary
281
     1
  3
Layout1
350
6E
  3
Model
350
72
  0
DICTIONARY
  5
10
102
{ACAD_REACTORS
330
C
102
}
330
C
100
AcDbDictionary
281
     1
  3
ByBlock
350
19
  3
ByLayer
350
11
  3
Global
350
21
  0
DICTIONARY
  5
65
102
{ACAD_REACTORS
330
C
102
}
330
C
100
AcDbDictionary
281
     1
  3
Standard
350
66
  0
DICTIONARY
  5
5E
102
{ACAD_REACTORS
330
C
102
}
330
C
100
AcDbDictionary
281
     1
  3
Standard
350
5F
  0
DICTIONARY
  5
60
102
{ACAD_REACTORS
330
C
102
}
330
C
100
AcDbDictionary
281
     1
  0
ACDBDICTIONARYWDFLT
  5
E
102
{ACAD_REACTORS
330
C
102
}
330
C
100
AcDbDictionary
281
     1
  3
Normal
350
F
100
AcDbDictionaryWithDefault
340
F
  0
DICTIONARY
  5
42
102
{ACAD_REACTORS
330
C
102
}
330
C
100
AcDbDictionary
281
     1
  3
A0
350
43
  3
A1
350
44
  3
A2
350
45
  3
A3
350
46
  3
A4
350
47
  3
A5
350
48
  3
A6
350
49
  3
A7
350
4A
  3
A8
350
4B
  3
A9
350
4C
  3
B0
350
4D
  3
B1
350
4E
  3
B2
350
4F
  3
B3
350
50
  3
B4
350
51
  3
B5
350
52
  3
B6
350
53
  0
DICTIONARY
  5
67
102
{ACAD_REACTORS
330
C
102
}
330
C
100
AcDbDictionary
281
     1
  3
Imperial24
350
68
  0
DICTIONARY
  5
63
102
{ACAD_REACTORS
330
C
102
}
330
C
100
AcDbDictionary
281
     1
  3
Standard
350
64
  0
DICTIONARY
  5
29
102
{ACAD_REACTORS
330
C
102
}
330
C
100
AcDbDictionary
281
     1
  3
2dWireframe
350
2F
  3
Basic
350
2E
  3
Brighten
350
35
  3
ColorChange
350
39
  3
Conceptual
350
32
  3
Dim
350
34
  3
EdgeColorOff
350
41
  3
Facepattern
350
38
  3
Flat
350
2A
  3
FlatWithEdges
350
2B
  3
Gouraud
350
2C
  3
GouraudWithEdges
350
2D
  3
Hidden
350
31
  3
JitterOff
350
3F
  3
Linepattern
350
37
  3
OverhangOff
350
40
  3
Realistic
350
33
  3
Shaded
350
3E
  3
Shaded with edges
350
3D
  3
Shades of Gray
350
3A
  3
Sketchy
350
3B
  3
Thicken
350
36
  3
Wireframe
350
30
  3
X-Ray
350
3C
  0
XRECORD
  5
3B7
102
{ACAD_REACTORS
330
C
102
}
330
C
100
AcDbXrecord
280
     1
 90
        1
330
64
  0
DICTIONARY
  5
3AB
102
{ACAD_REACTORS
330
C
102
}
330
C
100
AcDbDictionary
281
     1
  3
CANNOSCALE
350
3B1
  3
CMLEADERSTYLE
350
3AD
  3
CTABLESTYLE
350
3AC
  3
CVIEWDETAILSTYLE
350
3AE
  3
CVIEWSECTIONSTYLE
350
3AF
  3
LAYEREVAL
350
3B3
  3
LAYERNOTIFY
350
3B4
  3
LIGHTINGUNITS
350
3B2
  3
MSLTSCALE
350
3B0
  0
ACDBDETAILVIEWSTYLE
  5
6A
102
{ACAD_REACTORS
330
69
102
}
330
69
100
AcDbModelDocViewStyle
 70
     0
  3
Imperial24
290
     0
300
Imperial24
 90
        0
100
AcDbDetailViewStyle
 70
     0
 71
     0
 90
        3
 71
     1
340
55
 62
   256
 40
0.24
340
0
 62
   256
 40
0.24
300

 40
0.36
280
     3
 71
     2
340
5C
 90
       25
 62
   256
 71
     3
340
55
 62
   256
 40
0.24
 90
        1
 40
0.75
 90
        1
300
%<\AcVar ViewType \f "%tc1">% %<\AcVar ViewDetailId>%\PSCALE %<\AcVar ViewScale \f "%sn">%
 71
     4
340
5C
 90
       25
 62
   256
340
5C
 90
       25
 62
   256
280
     0
  0
LAYOUT
  5
6E
102
{ACAD_REACTORS
330
61
102
}
330
61
100
AcDbPlotSettings
  1

  2

  4

  6

 40
0.0
 41
0.0
 42
0.0
 43
0.0
 44
0.0
 45
0.0
 46
0.0
 47
0.0
 48
0.0
 49
0.0
140
0.0
141
0.0
142
1.0
143
1.0
 70
   688
 72
     0
 73
     0
 74
     5
  7

 75
    16
147
1.0
 76
     0
 77
     2
 78
   300
148
0.0
149
0.0
100
AcDbLayout
  1
Layout1
 70
     1
 71
     1
 10
0.0
 20
0.0
 11
12.0
 21
9.0
 12
0.0
 22
0.0
 32
0.0
 14
0.0
 24
0.0
 34
0.0
 15
0.0
 25
0.0
 35
0.0
146
0.0
 13
0.0
 23
0.0
 33
0.0
 16
1.0
 26
0.0
 36
0.0
 17
0.0
 27
1.0
 37
0.0
 76
     0
330
6B
  0
LAYOUT
  5
72
102
{ACAD_REACTORS
330
61
102
}
330
61
100
AcDbPlotSettings
  1

  2

  4

  6

 40
0.0
 41
0.0
 42
0.0
 43
0.0
 44
0.0
 45
0.0
 46
0.0
 47
0.0
 48
0.0
 49
0.0
140
0.0
141
0.0
142
1.0
143
1.0
 70
  1712
 72
     0
 73
     0
 74
     0
  7

 75
     0
147
1.0
 76
     0
 77
     2
 78
   300
148
0.0
149
0.0
100
AcDbLayout
  1
Model
 70
     1
 71
     0
 10
0.0
 20
0.0
 11
12.0
 21
9.0
 12
0.0
 22
0.0
 32
0.0
 14
0.0
 24
0.0
 34
0.0
 15
0.0
 25
0.0
 35
0.0
146
0.0
 13
0.0
 23
0.0
 33
0.0
 16
1.0
 26
0.0
 36
0.0
 17
0.0
 27
1.0
 37
0.0
 76
     0
330
6F
  0
MATERIAL
  5
19
102
{ACAD_XDICTIONARY
360
1A
102
}
102
{ACAD_REACTORS
330
10
102
}
330
10
100
AcDbMaterial
  1
ByBlock
 72
     0
 43
0.0208333333333333
 43
0.0
 43
0.0
 43
0.0
 43
0.0
 43
0.0208333333333333
 43
0.0
 43
0.0
 43
0.0
 43
0.0
 43
1.0
 43
0.0
 43
0.0
 43
0.0
 43
0.0
 43
1.0
 77
     0
 47
0.0208333333333333
 47
0.0
 47
0.0
 47
0.0
 47
0.0
 47
0.0208333333333333
 47
0.0
 47
0.0
 47
0.0
 47
0.0
 47
1.0
 47
0.0
 47
0.0
 47
0.0
 47
0.0
 47
1.0
171
     0
 49
0.0208333333333333
 49
0.0
 49
0.0
 49
0.0
 49
0.0
 49
0.0208333333333333
 49
0.0
 49
0.0
 49
0.0
 49
0.0
 49
1.0
 49
0.0
 49
0.0
 49
0.0
 49
0.0
 49
1.0
175
     0
142
0.0208333333333333
142
0.0
142
0.0
142
0.0
142
0.0
142
0.0208333333333333
142
0.0
142
0.0
142
0.0
142
0.0
142
1.0
142
0.0
142
0.0
142
0.0
142
0.0
142
1.0
179
     0
144
0.0208333333333333
144
0.0
144
0.0
144
0.0
144
0.0
144
0.0208333333333333
144
0.0
144
0.0
144
0.0
144
0.0
144
1.0
144
0.0
144
0.0
144
0.0
144
0.0
144
1.0
147
0.0208333333333333
147
0.0
147
0.0
147
0.0
147
0.0
147
0.0208333333333333
147
0.0
147
0.0
147
0.0
147
0.0
147
1.0
147
0.0
147
0.0
147
0.0
147
0.0
147
1.0
  0
MATERIAL
  5
11
102
{ACAD_XDICTIONARY
360
12
102
}
102
{ACAD_REACTORS
330
10
102
}
330
10
100
AcDbMaterial
  1
ByLayer
 72
     0
 43
0.0208333333333333
 43
0.0
 43
0.0
 43
0.0
 43
0.0
 43
0.0208333333333333
 43
0.0
 43
0.0
 43
0.0
 43
0.0
 43
1.0
 43
0.0
 43
0.0
 43
0.0
 43
0.0
 43
1.0
 77
     0
 47
0.0208333333333333
 47
0.0
 47
0.0
 47
0.0
 47
0.0
 47
0.0208333333333333
 47
0.0
 47
0.0
 47
0.0
 47
0.0
 47
1.0
 47
0.0
 47
0.0
 47
0.0
 47
0.0
 47
1.0
171
     0
 49
0.0208333333333333
 49
0.0
 49
0.0
 49
0.0
 49
0.0
 49
0.0208333333333333
 49
0.0
 49
0.0
 49
0.0
 49
0.0
 49
1.0
 49
0.0
 49
0.0
 49
0.0
 49
0.0
 49
1.0
175
     0
142
0.0208333333333333
142
0.0
142
0.0
142
0.0
142
0.0
142
0.0208333333333333
142
0.0
142
0.0
142
0.0
142
0.0
142
1.0
142
0.0
142
0.0
142
0.0
142
0.0
142
1.0
179
     0
144
0.0208333333333333
144
0.0
144
0.0
144
0.0
144
0.0
144
0.0208333333333333
144
0.0
144
0.0
144
0.0
144
0.0
144
1.0
144
0.0
144
0.0
144
0.0
144
0.0
144
1.0
147
0.0208333333333333
147
0.0
147
0.0
147
0.0
147
0.0
147
0.0208333333333333
147
0.0
147
0.0
147
0.0
147
0.0
147
1.0
147
0.0
147
0.0
147
0.0
147
0.0
147
1.0
  0
MATERIAL
  5
21
102
{ACAD_XDICTIONARY
360
22
102
}
102
{ACAD_REACTORS
330
10
102
}
330
10
100
AcDbMaterial
  1
Global
 72
     0
 43
0.0208333333333333
 43
0.0
 43
0.0
 43
0.0
 43
0.0
 43
0.0208333333333333
 43
0.0
 43
0.0
 43
0.0
 43
0.0
 43
1.0
 43
0.0
 43
0.0
 43
0.0
 43
0.0
 43
1.0
 77
     0
 47
0.0208333333333333
 47
0.0
 47
0.0
 47
0.0
 47
0.0
 47
0.0208333333333333
 47
0.0
 47
0.0
 47
0.0
 47
0.0
 47
1.0
 47
0.0
 47
0.0
 47
0.0
 47
0.0
 47
1.0
171
     0
 49
0.0208333333333333
 49
0.0
 49
0.0
 49
0.0
 49
0.0
 49
0.0208333333333333
 49
0.0
 49
0.0
 49
0.0
 49
0.0
 49
1.0
 49
0.0
 49
0.0
 49
0.0
 49
0.0
 49
1.0
175
     0
142
0.0208333333333333
142
0.0
142
0.0
142
0.0
142
0.0
142
0.0208333333333333
142
0.0
142
0.0
142
0.0
142
0.0
142
1.0
142
0.0
142
0.0
142
0.0
142
0.0
142
1.0
179
     0
144
0.0208333333333333
144
0.0
144
0.0
144
0.0
144
0.0
144
0.0208333333333333
144
0.0
144
0.0
144
0.0
144
0.0
144
1.0
144
0.0
144
0.0
144
0.0
144
0.0
144
1.0
147
0.0208333333333333
147
0.0
147
0.0
147
0.0
147
0.0
147
0.0208333333333333
147
0.0
147
0.0
147
0.0
147
0.0
147
1.0
147
0.0
147
0.0
147
0.0
147
0.0
147
1.0
  0
MLEADERSTYLE
  5
66
102
{ACAD_REACTORS
330
65
102
}
330
65
100
AcDbMLeaderStyle
179
     2
170
     2
171
     1
172
     0
 90
        2
 40
0.0
 41
0.0
173
     1
 91
-1056964608
340
5A
 92
       -2
290
     1
 42
0.09
291
     1
 43
0.36
  3
Standard
 44
0.18
300

342
55
174
     1
178
     6
175
     1
176
     0
 93
-1056964608
 45
0.18
292
     0
297
     0
 46
0.18
 94
-1056964608
 47
1.0
 49
1.0
140
1.0
293
     1
141
0.0
294
     1
177
     0
142
1.0
295
     0
296
     0
143
0.125
271
     0
272
     9
273
     9
298
     0
  0
MLINESTYLE
  5
5F
102
{ACAD_REACTORS
330
5E
102
}
330
5E
100
AcDbMlineStyle
  2
STANDARD
 70
     0
  3

 62
   256
 51
90.0
 52
90.0
 71
     2
 49
0.5
 62
   256
  6
BYLAYER
 49
-0.5
 62
   256
  6
BYLAYER
  0
ACDBPLACEHOLDER
  5
F
102
{ACAD_REACTORS
330
E
102
}
330
E
  0
SCALE
  5
43
102
{ACAD_REACTORS
330
42
102
}
330
42
100
AcDbScale
 70
     0
300
1:1
140
1.0
141
1.0
290
     1
  0
SCALE
  5
44
102
{ACAD_REACTORS
330
42
102
}
330
42
100
AcDbScale
 70
     0
300
1/128" = 1'-0"
140
0.0078125
141
12.0
290
     0
  0
SCALE
  5
45
102
{ACAD_REACTORS
330
42
102
}
330
42
100
AcDbScale
 70
     0
300
1/64" = 1'-0"
140
0.015625
141
12.0
290
     0
  0
SCALE
  5
46
102
{ACAD_REACTORS
330
42
102
}
330
42
100
AcDbScale
 70
     0
300
1/32" = 1'-0"
140
0.03125
141
12.0
290
     0
  0
SCALE
  5
47
102
{ACAD_REACTORS
330
42
102
}
330
42
100
AcDbScale
 70
     0
300
1/16" = 1'-0"
140
0.0625
141
12.0
290
     0
  0
SCALE
  5
48
102
{ACAD_REACTORS
330
42
102
}
330
42
100
AcDbScale
 70
     0
300
3/32" = 1'-0"
140
0.09375
141
12.0
290
     0
  0
SCALE
  5
49
102
{ACAD_REACTORS
330
42
102
}
330
42
100
AcDbScale
 70
     0
300
1/8" = 1'-0"
140
0.125
141
12.0
290
     0
  0
SCALE
  5
4A
102
{ACAD_REACTORS
330
42
102
}
330
42
100
AcDbScale
 70
     0
300
3/16" = 1'-0"
140
0.1875
141
12.0
290
     0
  0
SCALE
  5
4B
102
{ACAD_REACTORS
330
42
102
}
330
42
100
AcDbScale
 70
     0
300
1/4" = 1'-0"
140
0.25
141
12.0
290
     0
  0
SCALE
  5
4C
102
{ACAD_REACTORS
330
42
102
}
330
42
100
AcDbScale
 70
     0
300
3/8" = 1'-0"
140
0.375
141
12.0
290
     0
  0
SCALE
  5
4D
102
{ACAD_REACTORS
330
42
102
}
330
42
100
AcDbScale
 70
     0
300
1/2" = 1'-0"
140
0.5
141
12.0
290
     0
  0
SCALE
  5
4E
102
{ACAD_REACTORS
330
42
102
}
330
42
100
AcDbScale
 70
     0
300
3/4" = 1'-0"
140
0.75
141
12.0
290
     0
  0
SCALE
  5
4F
102
{ACAD_REACTORS
330
42
102
}
330
42
100
AcDbScale
 70
     0
300
1" = 1'-0"
140
1.0
141
12.0
290
     0
  0
SCALE
  5
50
102
{ACAD_REACTORS
330
42
102
}
330
42
100
AcDbScale
 70
     0
300
1-1/2" = 1'-0"
140
1.5
141
12.0
290
     0
  0
SCALE
  5
51
102
{ACAD_REACTORS
330
42
102
}
330
42
100
AcDbScale
 70
     0
300
3" = 1'-0"
140
3.0
141
12.0
290
     0
  0
SCALE
  5
52
102
{ACAD_REACTORS
330
42
102
}
330
42
100
AcDbScale
 70
     0
300
6" = 1'-0"
140
6.0
141
12.0
290
     0
  0
SCALE
  5
53
102
{ACAD_REACTORS
330
42
102
}
330
42
100
AcDbScale
 70
     0
300
1'-0" = 1'-0"
140
12.0
141
12.0
290
     0
  0
ACDBSECTIONVIEWSTYLE
  5
68
102
{ACAD_REACTORS
330
67
102
}
330
67
100
AcDbModelDocViewStyle
 70
     0
  3
Imperial24
290
     0
300
Imperial24
 90
        0
100
AcDbSectionViewStyle
 70
     0
 71
     0
 90
       78
 71
     1
340
55
 62
   256
 40
0.24
340
0
340
0
 62
   256
 40
0.24
300
I, O, Q, S, X, Z
 40
0.48
 90
        3
 40
0.18
 90
        1
 71
     2
340
5C
 90
       25
 62
   256
340
5C
 90
       50
 62
   256
 40
0.24
 40
0.0
 40
0.24
 71
     3
340
55
 62
   256
 40
0.24
 90
        1
 40
0.75
 90
        1
300
%<\AcVar ViewType \f "%tc1">% %<\AcVar ViewSectionStartId>%-%<\AcVar ViewSectionEndId>%\PSCALE %<\AcVar ViewScale \f "%sn">%
 71
     4
 62
   256
 62
   257
300
ANSI31
 40
1.0
 90
        0
290
     0
290
     0
 90
        6
 40
0.0
 40
1.570796326794896
 40
0.2617993877991494
 40
1.308996938995747
 40
-0.2617993877991494
 40
1.832595714594046
  0
TABLESTYLE
  5
64
102
{ACAD_XDICTIONARY
360
3B5
102
}
102
{ACAD_REACTORS
330
63
102
}
330
63
100
AcDbTableStyle
280
     0
  3
Standard
 70
     0
 71
     0
 40
0.06
 41
0.06
280
     0
281
     0
  7
STANDARD
140
0.18
170
     2
 62
     0
 63
     7
283
     0
 90
      512
 91
        0
  1

274
    -2
284
     1
 64
     0
275
    -2
285
     1
 65
     0
276
    -2
286
     1
 66
     0
277
    -2
287
     1
 67
     0
278
    -2
288
     1
 68
     0
279
    -2
289
     1
 69
     0
  7
STANDARD
140
0.25
170
     5
 62
     0
 63
     7
283
     0
 90
      512
 91
        0
  1

274
    -2
284
     1
 64
     0
275
    -2
285
     1
 65
     0
276
    -2
286
     1
 66
     0
277
    -2
287
     1
 67
     0
278
    -2
288
     1
 68
     0
279
    -2
289
     1
 69
     0
  7
STANDARD
140
0.18
170
     5
 62
     0
 63
     7
283
     0
 90
      512
 91
        0
  1

274
    -2
284
     1
 64
     0
275
    -2
285
     1
 65
     0
276
    -2
286
     1
 66
     0
277
    -2
287
     1
 67
     0
278
    -2
288
     1
 68
     0
279
    -2
289
     1
 69
     0
  0
VISUALSTYLE
  5
2F
102
{ACAD_REACTORS
330
29
102
}
330
29
100
AcDbVisualStyle
  2
2dWireframe
 70
     4
177
     3
291
     0
 70
    58
 90
        0
176
     1
 90
        2
176
     1
 90
        0
176
     1
 90
        0
176
     1
 40
0.6
176
     1
 40
30.0
176
     1
 62
     7
420
 16777215
176
     1
 90
        1
176
     1
 90
        4
176
     1
 62
     7
176
     1
 62
   257
176
     1
 90
        1
176
     1
 90
        1
176
     1
 40
1.0
176
     1
 90
        0
176
     1
 62
   257
176
     1
 40
1.0
176
     1
 90
        1
176
     1
 90
        6
176
     1
 90
        2
176
     1
 62
     7
176
     1
 90
        5
176
     1
 90
        0
176
     1
 90
        0
176
     1
290
     0
176
     1
 90
        1
176
     1
 40
0.0
176
     1
 90
        0
176
     1
290
     1
176
     1
290
     1
176
     1
290
     0
176
     1
290
     0
176
     1
290
     0
176
     1
290
     0
176
     1
290
     0
176
     1
290
     0
176
     1
290
     0
176
     1
 90
       50
176
     1
 40
0.0
176
     1
 40
1.0
176
     1
 90
        0
176
     1
 62
    18
420
        0
176
     1
 90
       50
176
     1
 90
        3
176
     1
 62
     5
420
      255
176
     1
290
     0
176
     1
 90
       50
176
     1
 90
       50
176
     1
 90
       50
176
     1
290
     0
176
     1
 90
       50
176
     1
 62
   256
176
     0
 40
1.0
176
     0
 90
        2
176
     1
  1
strokes_ogs.tif
176
     1
290
     0
176
     1
 40
1.0
176
     1
 40
1.0
176
     1
  0
VISUALSTYLE
  5
2E
102
{ACAD_REACTORS
330
29
102
}
330
29
100
AcDbVisualStyle
  2
Basic
 70
     7
177
     3
291
     1
 70
    58
 90
        1
176
     1
 90
        0
176
     1
 90
        1
176
     1
 90
        0
176
     1
 40
0.6
176
     1
 40
30.0
176
     1
 62
     7
420
 16777215
176
     1
 90
        0
176
     1
 90
        4
176
     1
 62
     7
176
     1
 62
   257
176
     1
 90
        1
176
     1
 90
        1
176
     1
 40
1.0
176
     1
 90
        8
176
     1
 62
     7
176
     1
 40
1.0
176
     1
 90
        1
176
     1
 90
        6
176
     1
 90
        2
176
     1
 62
     7
176
     1
 90
        5
176
     1
 90
        0
176
     1
 90
        0
176
     1
290
     0
176
     1
 90
        1
176
     1
 40
0.0
176
     1
 90
        0
176
     1
290
     0
176
     1
290
     1
176
     1
290
     1
176
     1
290
     0
176
     1
290
     0
176
     1
290
     0
176
     1
290
     0
176
     1
290
     0
176
     1
290
     0
176
     1
 90
       50
176
     1
 40
0.0
176
     1
 40
1.0
176
     1
 90
        0
176
     1
 62
    18
420
        0
176
     1
 90
       50
176
     1
 90
        3
176
     1
 62
     5
420
      255
176
     1
290
     0
176
     1
 90
       50
176
     1
 90
       50
176
     1
 90
       50
176
     1
290
     0
176
     1
 90
       50
176
     1
 62
   256
176
     0
 40
1.0
176
     0
 90
        2
176
     1
  1
strokes_ogs.tif
176
     1
290
     0
176
     1
 40
1.0
176
     1
 40
1.0
176
     1
  0
VISUALSTYLE
  5
35
102
{ACAD_REACTORS
330
29
102
}
330
29
100
AcDbVisualStyle
  2
Brighten
 70
    12
177
     3
291
     1
 70
    58
 90
        2
176
     1
 90
        2
176
     1
 90
        0
176
     1
 90
        0
176
     1
 40
0.6
176
     1
 40
30.0
176
     1
 62
     7
420
 16777215
176
     1
 90
        1
176
     1
 90
        4
176
     1
 62
     7
176
     1
 62
   257
176
     1
 90
        1
176
     1
 90
        1
176
     1
 40
1.0
176
     1
 90
        8
176
     1
 62
     7
176
     1
 40
1.0
176
     1
 90
        1
176
     1
 90
        6
176
     1
 90
        2
176
     1
 62
     7
176
     1
 90
        5
176
     1
 90
        0
176
     1
 90
        0
176
     1
290
     0
176
     1
 90
        1
176
     1
 40
50.0
176
     1
 90
        0
176
     1
290
     0
176
     1
290
     1
176
     1
290
     1
176
     1
290
     0
176
     1
290
     0
176
     1
290
     0
176
     1
290
     0
176
     1
290
     0
176
     1
290
     0
176
     1
 90
       50
176
     1
 40
0.0
176
     1
 40
1.0
176
     1
 90
        0
176
     1
 62
    18
420
        0
176
     1
 90
       50
176
     1
 90
        3
176
     1
 62
     5
420
      255
176
     1
290
     0
176
     1
 90
       50
176
     1
 90
       50
176
     1
 90
       50
176
     1
290
     0
176
     1
 90
       50
176
     1
 62
   256
176
     0
 40
1.0
176
     0
 90
        2
176
     1
  1
strokes_ogs.tif
176
     1
290
     0
176
     1
 40
1.0
176
     1
 40
1.0
176
     1
  0
VISUALSTYLE
  5
39
102
{ACAD_REACTORS
330
29
102
}
330
29
100
AcDbVisualStyle
  2
ColorChange
 70
    16
177
     3
291
     1
 70
    58
 90
        2
176
     1
 90
        2
176
     1
 90
        3
176
     1
 90
        0
176
     1
 40
0.6
176
     1
 40
30.0
176
     1
 62
     8
420
  8421504
176
     1
 90
        1
176
     1
 90
        4
176
     1
 62
     7
176
     1
 62
   257
176
     1
 90
        1
176
     1
 90
        1
176
     1
 40
1.0
176
     1
 90
        8
176
     1
 62
     8
420
  8421504
176
     1
 40
1.0
176
     1
 90
        1
176
     1
 90
        6
176
     1
 90
        2
176
     1
 62
     7
176
     1
 90
        5
176
     1
 90
        0
176
     1
 90
        0
176
     1
290
     0
176
     1
 90
        1
176
     1
 40
0.0
176
     1
 90
        0
176
     1
290
     0
176
     1
290
     1
176
     1
290
     1
176
     1
290
     0
176
     1
290
     0
176
     1
290
     0
176
     1
290
     0
176
     1
290
     0
176
     1
290
     0
176
     1
 90
       50
176
     1
 40
0.0
176
     1
 40
1.0
176
     1
 90
        0
176
     1
 62
    18
420
        0
176
     1
 90
       50
176
     1
 90
        3
176
     1
 62
     5
420
      255
176
     1
290
     0
176
     1
 90
       50
176
     1
 90
       50
176
     1
 90
       50
176
     1
290
     0
176
     1
 90
       50
176
     1
 62
   256
176
     0
 40
1.0
176
     0
 90
        2
176
     1
  1
strokes_ogs.tif
176
     1
290
     0
176
     1
 40
1.0
176
     1
 40
1.0
176
     1
  0
VISUALSTYLE
  5
32
102
{ACAD_REACTORS
330
29
102
}
330
29
100
AcDbVisualStyle
  2
Conceptual
 70
     9
177
     3
291
     0
 70
    58
 90
        3
176
     1
 90
        2
176
     1
 90
        0
176
     1
 90
        0
176
     1
 40
0.6
176
     1
 40
30.0
176
     1
 62
     7
420
 16777215
176
     1
 90
        2
176
     1
 90
        2
176
     1
 62
     7
176
     1
 62
   257
176
     1
 90
        1
176
     1
 90
        1
176
     1
 40
179.0
176
     1
 90
        8
176
     1
 62
     7
176
     1
 40
1.0
176
     1
 90
        1
176
     1
 90
        6
176
     1
 90
        2
176
     1
 62
     7
176
     1
 90
        3
176
     1
 90
        0
176
     1
 90
        0
176
     1
290
     0
176
     1
 90
        1
176
     1
 40
0.0
176
     1
 90
        0
176
     1
290
     0
176
     1
290
     1
176
     1
290
     1
176
     1
290
     0
176
     1
290
     0
176
     1
290
     0
176
     1
290
     0
176
     1
290
     0
176
     1
290
     0
176
     1
 90
       50
176
     1
 40
0.0
176
     1
 40
1.0
176
     1
 90
        0
176
     1
 62
    18
420
        0
176
     1
 90
       50
176
     1
 90
        3
176
     1
 62
     5
420
      255
176
     1
290
     0
176
     1
 90
       50
176
     1
 90
       50
176
     1
 90
       50
176
     1
290
     0
176
     1
 90
       50
176
     1
 62
   256
176
     0
 40
1.0
176
     0
 90
        2
176
     1
  1
strokes_ogs.tif
176
     1
290
     0
176
     1
 40
1.0
176
     1
 40
1.0
176
     1
  0
VISUALSTYLE
  5
34
102
{ACAD_REACTORS
330
29
102
}
330
29
100
AcDbVisualStyle
  2
Dim
 70
    11
177
     3
291
     1
 70
    58
 90
        2
176
     1
 90
        2
176
     1
 90
        0
176
     1
 90
        0
176
     1
 40
0.6
176
     1
 40
30.0
176
     1
 62
     7
420
 16777215
176
     1
 90
        1
176
     1
 90
        4
176
     1
 62
     7
176
     1
 62
   257
176
     1
 90
        1
176
     1
 90
        1
176
     1
 40
1.0
176
     1
 90
        8
176
     1
 62
     7
176
     1
 40
1.0
176
     1
 90
        1
176
     1
 90
        6
176
     1
 90
        2
176
     1
 62
     7
176
     1
 90
        5
176
     1
 90
        0
176
     1
 90
        0
176
     1
290
     0
176
     1
 90
        1
176
     1
 40
-50.0
176
     1
 90
        0
176
     1
290
     0
176
     1
290
     1
176
     1
290
     1
176
     1
290
     0
176
     1
290
     0
176
     1
290
     0
176
     1
290
     0
176
     1
290
     0
176
     1
290
     0
176
     1
 90
       50
176
     1
 40
0.0
176
     1
 40
1.0
176
     1
 90
        0
176
     1
 62
    18
420
        0
176
     1
 90
       50
176
     1
 90
        3
176
     1
 62
     5
420
      255
176
     1
290
     0
176
     1
 90
       50
176
     1
 90
       50
176
     1
 90
       50
176
     1
290
     0
176
     1
 90
       50
176
     1
 62
   256
176
     0
 40
1.0
176
     0
 90
        2
176
     1
  1
strokes_ogs.tif
176
     1
290
     0
176
     1
 40
1.0
176
     1
 40
1.0
176
     1
  0
VISUALSTYLE
  5
41
102
{ACAD_REACTORS
330
29
102
}
330
29
100
AcDbVisualStyle
  2
EdgeColorOff
 70
    22
177
     3
291
     1
 70
    58
 90
        2
176
     0
 90
        2
176
     0
 90
        0
176
     0
 90
        0
176
     0
 40
0.6
176
     0
 40
30.0
176
     0
 62
     7
420
 16777215
176
     0
 90
        1
176
     0
 90
        4
176
     0
 62
     7
176
     0
 62
   257
176
     0
 90
        1
176
     0
 90
        1
176
     0
 40
1.0
176
     0
 90
        8
176
     2
 62
     7
176
     0
 40
1.0
176
     0
 90
        1
176
     0
 90
        6
176
     0
 90
        2
176
     0
 62
     7
176
     0
 90
        5
176
     0
 90
        0
176
     0
 90
        0
176
     0
290
     0
176
     0
 90
        1
176
     0
 40
0.0
176
     0
 90
        0
176
     0
290
     0
176
     1
290
     1
176
     1
290
     1
176
     1
290
     0
176
     1
290
     0
176
     1
290
     0
176
     1
290
     0
176
     1
290
     0
176
     1
290
     0
176
     1
 90
       50
176
     0
 40
0.0
176
     0
 40
1.0
176
     0
 90
        0
176
     0
 62
    18
420
        0
176
     0
 90
       50
176
     0
 90
        3
176
     0
 62
     5
420
      255
176
     0
290
     0
176
     1
 90
       50
176
     0
 90
       50
176
     0
 90
       50
176
     0
290
     0
176
     1
 90
       50
176
     0
 62
   256
176
     0
 40
1.0
176
     0
 90
        2
176
     0
  1
strokes_ogs.tif
176
     0
290
     0
176
     1
 40
1.0
176
     0
 40
1.0
176
     0
  0
VISUALSTYLE
  5
38
102
{ACAD_REACTORS
330
29
102
}
330
29
100
AcDbVisualStyle
  2
Facepattern
 70
    15
177
     3
291
     1
 70
    58
 90
        2
176
     1
 90
        2
176
     1
 90
        0
176
     1
 90
        0
176
     1
 40
0.6
176
     1
 40
30.0
176
     1
 62
     7
420
 16777215
176
     1
 90
        1
176
     1
 90
        4
176
     1
 62
     7
176
     1
 62
   257
176
     1
 90
        1
176
     1
 90
        1
176
     1
 40
1.0
176
     1
 90
        8
176
     1
 62
     7
176
     1
 40
1.0
176
     1
 90
        1
176
     1
 90
        6
176
     1
 90
        2
176
     1
 62
     7
176
     1
 90
        5
176
     1
 90
        0
176
     1
 90
        0
176
     1
290
     0
176
     1
 90
        1
176
     1
 40
0.0
176
     1
 90
        0
176
     1
290
     0
176
     1
290
     1
176
     1
290
     1
176
     1
290
     0
176
     1
290
     0
176
     1
290
     0
176
     1
290
     0
176
     1
290
     0
176
     1
290
     0
176
     1
 90
       50
176
     1
 40
0.0
176
     1
 40
1.0
176
     1
 90
        0
176
     1
 62
    18
420
        0
176
     1
 90
       50
176
     1
 90
        3
176
     1
 62
     5
420
      255
176
     1
290
     0
176
     1
 90
       50
176
     1
 90
       50
176
     1
 90
       50
176
     1
290
     0
176
     1
 90
       50
176
     1
 62
   256
176
     0
 40
1.0
176
     0
 90
        2
176
     1
  1
strokes_ogs.tif
176
     1
290
     0
176
     1
 40
1.0
176
     1
 40
1.0
176
     1
  0
VISUALSTYLE
  5
2A
102
{ACAD_REACTORS
330
29
102
}
330
29
100
AcDbVisualStyle
  2
Flat
 70
     0
177
     3
291
     1
 70
    58
 90
        2
176
     1
 90
        1
176
     1
 90
        1
176
     1
 90
        2
176
     1
 40
0.6
176
     1
 40
30.0
176
     1
 62
     7
420
 16777215
176
     1
 90
        0
176
     1
 90
        0
176
     1
 62
     7
176
     1
 62
   257
176
     1
 90
        1
176
     1
 90
        1
176
     1
 40
1.0
176
     1
 90
        8
176
     1
 62
     7
176
     1
 40
1.0
176
     1
 90
        1
176
     1
 90
        6
176
     1
 90
        2
176
     1
 62
     7
176
     1
 90
        5
176
     1
 90
        0
176
     1
 90
        0
176
     1
290
     0
176
     1
 90
       13
176
     1
 40
0.0
176
     1
 90
        0
176
     1
290
     0
176
     1
290
     1
176
     1
290
     1
176
     1
290
     0
176
     1
290
     0
176
     1
290
     0
176
     1
290
     0
176
     1
290
     0
176
     1
290
     0
176
     1
 90
       50
176
     1
 40
0.0
176
     1
 40
1.0
176
     1
 90
        0
176
     1
 62
    18
420
        0
176
     1
 90
       50
176
     1
 90
        3
176
     1
 62
     5
420
      255
176
     1
290
     0
176
     1
 90
       50
176
     1
 90
       50
176
     1
 90
       50
176
     1
290
     0
176
     1
 90
       50
176
     1
 62
   256
176
     0
 40
1.0
176
     0
 90
        2
176
     1
  1
strokes_ogs.tif
176
     1
290
     0
176
     1
 40
1.0
176
     1
 40
1.0
176
     1
  0
VISUALSTYLE
  5
2B
102
{ACAD_REACTORS
330
29
102
}
330
29
100
AcDbVisualStyle
  2
FlatWithEdges
 70
     1
177
     3
291
     1
 70
    58
 90
        2
176
     1
 90
        1
176
     1
 90
        1
176
     1
 90
        2
176
     1
 40
0.6
176
     1
 40
30.0
176
     1
 62
     7
420
 16777215
176
     1
 90
        1
176
     1
 90
        0
176
     1
 62
     7
176
     1
 62
   257
176
     1
 90
        1
176
     1
 90
        1
176
     1
 40
1.0
176
     1
 90
        0
176
     1
 62
   257
176
     1
 40
1.0
176
     1
 90
        1
176
     1
 90
        6
176
     1
 90
        2
176
     1
 62
     7
176
     1
 90
        5
176
     1
 90
        0
176
     1
 90
        0
176
     1
290
     0
176
     1
 90
       13
176
     1
 40
0.0
176
     1
 90
        0
176
     1
290
     0
176
     1
290
     1
176
     1
290
     1
176
     1
290
     0
176
     1
290
     0
176
     1
290
     0
176
     1
290
     0
176
     1
290
     0
176
     1
290
     0
176
     1
 90
       50
176
     1
 40
0.0
176
     1
 40
1.0
176
     1
 90
        0
176
     1
 62
    18
420
        0
176
     1
 90
       50
176
     1
 90
        3
176
     1
 62
     5
420
      255
176
     1
290
     0
176
     1
 90
       50
176
     1
 90
       50
176
     1
 90
       50
176
     1
290
     0
176
     1
 90
       50
176
     1
 62
   256
176
     0
 40
1.0
176
     0
 90
        2
176
     1
  1
strokes_ogs.tif
176
     1
290
     0
176
     1
 40
1.0
176
     1
 40
1.0
176
     1
  0
VISUALSTYLE
  5
2C
102
{ACAD_REACTORS
330
29
102
}
330
29
100
AcDbVisualStyle
  2
Gouraud
 70
     2
177
     3
291
     1
 70
    58
 90
        2
176
     1
 90
        2
176
     1
 90
        1
176
     1
 90
        2
176
     1
 40
0.6
176
     1
 40
30.0
176
     1
 62
     7
420
 16777215
176
     1
 90
        0
176
     1
 90
        0
176
     1
 62
     7
176
     1
 62
   257
176
     1
 90
        1
176
     1
 90
        1
176
     1
 40
1.0
176
     1
 90
        0
176
     1
 62
     7
176
     1
 40
1.0
176
     1
 90
        1
176
     1
 90
        6
176
     1
 90
        2
176
     1
 62
     7
176
     1
 90
        5
176
     1
 90
        0
176
     1
 90
        0
176
     1
290
     0
176
     1
 90
       13
176
     1
 40
0.0
176
     1
 90
        0
176
     1
290
     0
176
     1
290
     1
176
     1
290
     1
176
     1
290
     0
176
     1
290
     0
176
     1
290
     0
176
     1
290
     0
176
     1
290
     0
176
     1
290
     0
176
     1
 90
       50
176
     1
 40
0.0
176
     1
 40
1.0
176
     1
 90
        0
176
     1
 62
    18
420
        0
176
     1
 90
       50
176
     1
 90
        3
176
     1
 62
     5
420
      255
176
     1
290
     0
176
     1
 90
       50
176
     1
 90
       50
176
     1
 90
       50
176
     1
290
     0
176
     1
 90
       50
176
     1
 62
   256
176
     0
 40
1.0
176
     0
 90
        2
176
     1
  1
strokes_ogs.tif
176
     1
290
     0
176
     1
 40
1.0
176
     1
 40
1.0
176
     1
  0
VISUALSTYLE
  5
2D
102
{ACAD_REACTORS
330
29
102
}
330
29
100
AcDbVisualStyle
  2
GouraudWithEdges
 70
     3
177
     3
291
     1
 70
    58
 90
        2
176
     1
 90
        2
176
     1
 90
        1
176
     1
 90
        2
176
     1
 40
0.6
176
     1
 40
30.0
176
     1
 62
     7
420
 16777215
176
     1
 90
        1
176
     1
 90
        0
176
     1
 62
     7
176
     1
 62
   257
176
     1
 90
        1
176
     1
 90
        1
176
     1
 40
1.0
176
     1
 90
        0
176
     1
 62
   257
176
     1
 40
1.0
176
     1
 90
        1
176
     1
 90
        6
176
     1
 90
        2
176
     1
 62
     7
176
     1
 90
        5
176
     1
 90
        0
176
     1
 90
        0
176
     1
290
     0
176
     1
 90
       13
176
     1
 40
0.0
176
     1
 90
        0
176
     1
290
     0
176
     1
290
     1
176
     1
290
     1
176
     1
290
     0
176
     1
290
     0
176
     1
290
     0
176
     1
290
     0
176
     1
290
     0
176
     1
290
     0
176
     1
 90
       50
176
     1
 40
0.0
176
     1
 40
1.0
176
     1
 90
        0
176
     1
 62
    18
420
        0
176
     1
 90
       50
176
     1
 90
        3
176
     1
 62
     5
420
      255
176
     1
290
     0
176
     1
 90
       50
176
     1
 90
       50
176
     1
 90
       50
176
     1
290
     0
176
     1
 90
       50
176
     1
 62
   256
176
     0
 40
1.0
176
     0
 90
        2
176
     1
  1
strokes_ogs.tif
176
     1
290
     0
176
     1
 40
1.0
176
     1
 40
1.0
176
     1
  0
VISUALSTYLE
  5
31
102
{ACAD_REACTORS
330
29
102
}
330
29
100
AcDbVisualStyle
  2
Hidden
 70
     6
177
     3
291
     0
 70
    58
 90
        1
176
     1
 90
        2
176
     1
 90
        2
176
     1
 90
        0
176
     1
 40
0.6
176
     1
 40
30.0
176
     1
 62
     7
420
 16777215
176
     1
 90
        2
176
     1
 90
        2
176
     1
 62
     7
176
     1
 62
   257
176
     1
 90
        2
176
     1
 90
        1
176
     1
 40
40.0
176
     1
 90
        0
176
     1
 62
   257
176
     1
 40
1.0
176
     1
 90
        1
176
     1
 90
        6
176
     1
 90
        2
176
     1
 62
     7
176
     1
 90
        3
176
     1
 90
        0
176
     1
 90
        0
176
     1
290
     0
176
     1
 90
        1
176
     1
 40
0.0
176
     1
 90
        0
176
     1
290
     0
176
     1
290
     1
176
     1
290
     1
176
     1
290
     0
176
     1
290
     0
176
     1
290
     0
176
     1
290
     0
176
     1
290
     0
176
     1
290
     0
176
     1
 90
       50
176
     1
 40
0.0
176
     1
 40
1.0
176
     1
 90
        0
176
     1
 62
    18
420
        0
176
     1
 90
       50
176
     1
 90
        3
176
     1
 62
     5
420
      255
176
     1
290
     0
176
     1
 90
       50
176
     1
 90
       50
176
     1
 90
       50
176
     1
290
     0
176
     1
 90
       50
176
     1
 62
   256
176
     0
 40
1.0
176
     0
 90
        2
176
     1
  1
strokes_ogs.tif
176
     1
290
     0
176
     1
 40
1.0
176
     1
 40
1.0
176
     1
  0
VISUALSTYLE
  5
3F
102
{ACAD_REACTORS
330
29
102
}
330
29
100
AcDbVisualStyle
  2
JitterOff
 70
    20
177
     3
291
     1
 70
    58
 90
        2
176
     0
 90
        2
176
     0
 90
        0
176
     0
 90
        0
176
     0
 40
0.6
176
     0
 40
30.0
176
     0
 62
     7
420
 16777215
176
     0
 90
        1
176
     0
 90
        4
176
     0
 62
     7
176
     0
 62
   257
176
     0
 90
        1
176
     0
 90
        1
176
     0
 40
1.0
176
     0
 90
       10
176
     2
 62
     7
176
     0
 40
1.0
176
     0
 90
        1
176
     0
 90
        6
176
     0
 90
        2
176
     0
 62
     7
176
     0
 90
        5
176
     0
 90
        0
176
     0
 90
        0
176
     0
290
     0
176
     0
 90
        1
176
     0
 40
0.0
176
     0
 90
        0
176
     0
290
     0
176
     1
290
     1
176
     1
290
     1
176
     1
290
     0
176
     1
290
     0
176
     1
290
     0
176
     1
290
     0
176
     1
290
     0
176
     1
290
     0
176
     1
 90
       50
176
     0
 40
0.0
176
     0
 40
1.0
176
     0
 90
        0
176
     0
 62
    18
420
        0
176
     0
 90
       50
176
     0
 90
        3
176
     0
 62
     5
420
      255
176
     0
290
     0
176
     1
 90
       50
176
     0
 90
       50
176
     0
 90
       50
176
     0
290
     0
176
     1
 90
       50
176
     0
 62
   256
176
     0
 40
1.0
176
     0
 90
        2
176
     0
  1
strokes_ogs.tif
176
     0
290
     0
176
     1
 40
1.0
176
     0
 40
1.0
176
     0
  0
VISUALSTYLE
  5
37
102
{ACAD_REACTORS
330
29
102
}
330
29
100
AcDbVisualStyle
  2
Linepattern
 70
    14
177
     3
291
     1
 70
    58
 90
        2
176
     1
 90
        2
176
     1
 90
        0
176
     1
 90
        0
176
     1
 40
0.6
176
     1
 40
30.0
176
     1
 62
     7
420
 16777215
176
     1
 90
        1
176
     1
 90
        4
176
     1
 62
     7
176
     1
 62
   257
176
     1
 90
        7
176
     1
 90
        7
176
     1
 40
1.0
176
     1
 90
        8
176
     1
 62
     7
176
     1
 40
1.0
176
     1
 90
        1
176
     1
 90
        6
176
     1
 90
        2
176
     1
 62
     7
176
     1
 90
        5
176
     1
 90
        0
176
     1
 90
        0
176
     1
290
     0
176
     1
 90
        1
176
     1
 40
0.0
176
     1
 90
        0
176
     1
290
     0
176
     1
290
     1
176
     1
290
     1
176
     1
290
     0
176
     1
290
     0
176
     1
290
     0
176
     1
290
     0
176
     1
290
     0
176
     1
290
     0
176
     1
 90
       50
176
     1
 40
0.0
176
     1
 40
1.0
176
     1
 90
        0
176
     1
 62
    18
420
        0
176
     1
 90
       50
176
     1
 90
        3
176
     1
 62
     5
420
      255
176
     1
290
     0
176
     1
 90
       50
176
     1
 90
       50
176
     1
 90
       50
176
     1
290
     0
176
     1
 90
       50
176
     1
 62
   256
176
     0
 40
1.0
176
     0
 90
        2
176
     1
  1
strokes_ogs.tif
176
     1
290
     0
176
     1
 40
1.0
176
     1
 40
1.0
176
     1
  0
VISUALSTYLE
  5
40
102
{ACAD_REACTORS
330
29
102
}
330
29
100
AcDbVisualStyle
  2
OverhangOff
 70
    21
177
     3
291
     1
 70
    58
 90
        2
176
     0
 90
        2
176
     0
 90
        0
176
     0
 90
        0
176
     0
 40
0.6
176
     0
 40
30.0
176
     0
 62
     7
420
 16777215
176
     0
 90
        1
176
     0
 90
        4
176
     0
 62
     7
176
     0
 62
   257
176
     0
 90
        1
176
     0
 90
        1
176
     0
 40
1.0
176
     0
 90
        9
176
     2
 62
     7
176
     0
 40
1.0
176
     0
 90
        1
176
     0
 90
        6
176
     0
 90
        2
176
     0
 62
     7
176
     0
 90
        5
176
     0
 90
        0
176
     0
 90
        0
176
     0
290
     0
176
     0
 90
        1
176
     0
 40
0.0
176
     0
 90
        0
176
     0
290
     0
176
     1
290
     1
176
     1
290
     1
176
     1
290
     0
176
     1
290
     0
176
     1
290
     0
176
     1
290
     0
176
     1
290
     0
176
     1
290
     0
176
     1
 90
       50
176
     0
 40
0.0
176
     0
 40
1.0
176
     0
 90
        0
176
     0
 62
    18
420
        0
176
     0
 90
       50
176
     0
 90
        3
176
     0
 62
     5
420
      255
176
     0
290
     0
176
     1
 90
       50
176
     0
 90
       50
176
     0
 90
       50
176
     0
290
     0
176
     1
 90
       50
176
     0
 62
   256
176
     0
 40
1.0
176
     0
 90
        2
176
     0
  1
strokes_ogs.tif
176
     0
290
     0
176
     1
 40
1.0
176
     0
 40
1.0
176
     0
  0
VISUALSTYLE
  5
33
102
{ACAD_REACTORS
330
29
102
}
330
29
100
AcDbVisualStyle
  2
Realistic
 70
     8
177
     3
291
     0
 70
    58
 90
        2
176
     1
 90
        3
176
     1
 90
        0
176
     1
 90
        2
176
     1
 40
0.6
176
     1
 40
30.0
176
     1
 62
     7
420
 16777215
176
     1
 90
        0
176
     1
 90
        0
176
     1
 62
     7
176
     1
 62
   257
176
     1
 90
        1
176
     1
 90
        1
176
     1
 40
1.0
176
     1
 90
        8
176
     1
 62
   257
176
     1
 40
1.0
176
     1
 90
        1
176
     1
 90
        6
176
     1
 90
        2
176
     1
 62
     7
176
     1
 90
        3
176
     1
 90
        0
176
     1
 90
        0
176
     1
290
     0
176
     1
 90
       13
176
     1
 40
0.0
176
     1
 90
        0
176
     1
290
     0
176
     1
290
     1
176
     1
290
     1
176
     1
290
     0
176
     1
290
     0
176
     1
290
     0
176
     1
290
     0
176
     1
290
     0
176
     1
290
     0
176
     1
 90
       50
176
     1
 40
0.0
176
     1
 40
1.0
176
     1
 90
        0
176
     1
 62
    18
420
        0
176
     1
 90
       50
176
     1
 90
        3
176
     1
 62
     5
420
      255
176
     1
290
     0
176
     1
 90
       50
176
     1
 90
       50
176
     1
 90
       50
176
     1
290
     0
176
     1
 90
       50
176
     1
 62
   256
176
     0
 40
1.0
176
     0
 90
        2
176
     1
  1
strokes_ogs.tif
176
     1
290
     0
176
     1
 40
1.0
176
     1
 40
1.0
176
     1
  0
VISUALSTYLE
  5
3E
102
{ACAD_REACTORS
330
29
102
}
330
29
100
AcDbVisualStyle
  2
Shaded
 70
    27
177
     3
291
     0
 70
    58
 90
        2
176
     1
 90
        2
176
     1
 90
        1
176
     1
 90
        2
176
     1
 40
0.6
176
     1
 40
30.0
176
     1
 62
     7
420
 16777215
176
     1
 90
        0
176
     1
 90
        4
176
     1
 62
     7
176
     1
 62
   257
176
     1
 90
        1
176
     1
 90
        1
176
     1
 40
1.0
176
     1
 90
        8
176
     1
 62
   257
176
     1
 40
1.0
176
     1
 90
        1
176
     1
 90
        6
176
     1
 90
        2
176
     1
 62
     8
420
  7895160
176
     1
 90
        3
176
     1
 90
        0
176
     1
 90
        0
176
     1
290
     0
176
     1
 90
        5
176
     1
 40
0.0
176
     1
 90
        0
176
     1
290
     0
176
     1
290
     1
176
     1
290
     1
176
     1
290
     0
176
     1
290
     0
176
     1
290
     0
176
     1
290
     0
176
     1
290
     0
176
     1
290
     0
176
     1
 90
       50
176
     1
 40
0.0
176
     1
 40
1.0
176
     1
 90
        0
176
     1
 62
    18
420
        0
176
     1
 90
       50
176
     1
 90
        3
176
     1
 62
     5
420
      255
176
     1
290
     0
176
     1
 90
       50
176
     1
 90
       50
176
     1
 90
       50
176
     1
290
     0
176
     1
 90
       50
176
     1
 62
   256
176
     0
 40
1.0
176
     0
 90
        2
176
     1
  1
strokes_ogs.tif
176
     1
290
     0
176
     1
 40
1.0
176
     1
 40
1.0
176
     1
  0
VISUALSTYLE
  5
3D
102
{ACAD_REACTORS
330
29
102
}
330
29
100
AcDbVisualStyle
  2
Shaded with edges
 70
    26
177
     3
291
     0
 70
    58
 90
        2
176
     1
 90
        2
176
     1
 90
        1
176
     1
 90
        2
176
     1
 40
0.6
176
     1
 40
30.0
176
     1
 62
     7
420
 16777215
176
     1
 90
        1
176
     1
 90
        2
176
     1
 62
     7
176
     1
 62
   257
176
     1
 90
        2
176
     1
 90
        1
176
     1
 40
1.0
176
     1
 90
        8
176
     1
 62
   257
176
     1
 40
1.0
176
     1
 90
        1
176
     1
 90
        6
176
     1
 90
        2
176
     1
 62
     7
176
     1
 90
        3
176
     1
 90
        0
176
     1
 90
        0
176
     1
290
     0
176
     1
 90
        5
176
     1
 40
0.0
176
     1
 90
        0
176
     1
290
     0
176
     1
290
     1
176
     1
290
     1
176
     1
290
     0
176
     1
290
     0
176
     1
290
     0
176
     1
290
     0
176
     1
290
     0
176
     1
290
     0
176
     1
 90
       50
176
     1
 40
0.0
176
     1
 40
1.0
176
     1
 90
        0
176
     1
 62
    18
420
        0
176
     1
 90
       50
176
     1
 90
        3
176
     1
 62
     5
420
      255
176
     1
290
     0
176
     1
 90
       50
176
     1
 90
       50
176
     1
 90
       50
176
     1
290
     0
176
     1
 90
       50
176
     1
 62
   256
176
     0
 40
1.0
176
     0
 90
        2
176
     1
  1
strokes_ogs.tif
176
     1
290
     0
176
     1
 40
1.0
176
     1
 40
1.0
176
     1
  0
VISUALSTYLE
  5
3A
102
{ACAD_REACTORS
330
29
102
}
330
29
100
AcDbVisualStyle
  2
Shades of Gray
 70
    23
177
     3
291
     0
 70
    58
 90
        2
176
     1
 90
        2
176
     1
 90
        3
176
     1
 90
        0
176
     1
 40
0.6
176
     1
 40
30.0
176
     1
 62
     7
420
 16777215
176
     1
 90
        2
176
     1
 90
        2
176
     1
 62
     7
176
     1
 62
     7
176
     1
 90
        1
176
     1
 90
        1
176
     1
 40
40.0
176
     1
 90
        8
176
     1
 62
     7
176
     1
 40
1.0
176
     1
 90
        1
176
     1
 90
        6
176
     1
 90
        2
176
     1
 62
     7
176
     1
 90
        3
176
     1
 90
        0
176
     1
 90
        0
176
     1
290
     0
176
     1
 90
        1
176
     1
 40
0.0
176
     1
 90
        0
176
     1
290
     0
176
     1
290
     1
176
     1
290
     1
176
     1
290
     0
176
     1
290
     0
176
     1
290
     0
176
     1
290
     0
176
     1
290
     0
176
     1
290
     0
176
     1
 90
       50
176
     1
 40
0.0
176
     1
 40
1.0
176
     1
 90
        0
176
     1
 62
    18
420
        0
176
     1
 90
       50
176
     1
 90
        3
176
     1
 62
     5
420
      255
176
     1
290
     0
176
     1
 90
       50
176
     1
 90
       50
176
     1
 90
       50
176
     1
290
     0
176
     1
 90
       50
176
     1
 62
   256
176
     0
 40
1.0
176
     0
 90
        2
176
     1
  1
strokes_ogs.tif
176
     1
290
     0
176
     1
 40
1.0
176
     1
 40
1.0
176
     1
  0
VISUALSTYLE
  5
3B
102
{ACAD_REACTORS
330
29
102
}
330
29
100
AcDbVisualStyle
  2
Sketchy
 70
    24
177
     3
291
     0
 70
    58
 90
        1
176
     1
 90
        2
176
     1
 90
        2
176
     1
 90
        0
176
     1
 40
0.6
176
     1
 40
30.0
176
     1
 62
     7
420
 16777215
176
     1
 90
        2
176
     1
 90
        2
176
     1
 62
     7
176
     1
 62
     7
176
     1
 90
        1
176
     1
 90
        1
176
     1
 40
40.0
176
     1
 90
       11
176
     1
 62
     7
176
     1
 40
1.0
176
     1
 90
        1
176
     1
 90
        6
176
     1
 90
        2
176
     1
 62
     7
176
     1
 90
        6
176
     1
 90
        0
176
     1
 90
        0
176
     1
290
     0
176
     1
 90
        1
176
     1
 40
0.0
176
     1
 90
        0
176
     1
290
     0
176
     1
290
     1
176
     1
290
     1
176
     1
290
     0
176
     1
290
     0
176
     1
290
     0
176
     1
290
     0
176
     1
290
     0
176
     1
290
     0
176
     1
 90
       50
176
     1
 40
0.0
176
     1
 40
1.0
176
     1
 90
        0
176
     1
 62
    18
420
        0
176
     1
 90
       50
176
     1
 90
        3
176
     1
 62
     5
420
      255
176
     1
290
     0
176
     1
 90
       50
176
     1
 90
       50
176
     1
 90
       50
176
     1
290
     0
176
     1
 90
       50
176
     1
 62
   256
176
     0
 40
1.0
176
     0
 90
        2
176
     1
  1
strokes_ogs.tif
176
     1
290
     0
176
     1
 40
1.0
176
     1
 40
1.0
176
     1
  0
VISUALSTYLE
  5
36
102
{ACAD_REACTORS
330
29
102
}
330
29
100
AcDbVisualStyle
  2
Thicken
 70
    13
177
     3
291
     1
 70
    58
 90
        2
176
     1
 90
        2
176
     1
 90
        0
176
     1
 90
        0
176
     1
 40
0.6
176
     1
 40
30.0
176
     1
 62
     7
420
 16777215
176
     1
 90
        1
176
     1
 90
        4
176
     1
 62
     7
176
     1
 62
   257
176
     1
 90
        1
176
     1
 90
        1
176
     1
 40
1.0
176
     1
 90
       12
176
     1
 62
     7
176
     1
 40
1.0
176
     1
 90
        1
176
     1
 90
        6
176
     1
 90
        2
176
     1
 62
     7
176
     1
 90
        5
176
     1
 90
        0
176
     1
 90
        0
176
     1
290
     0
176
     1
 90
        1
176
     1
 40
0.0
176
     1
 90
        0
176
     1
290
     0
176
     1
290
     1
176
     1
290
     1
176
     1
290
     0
176
     1
290
     0
176
     1
290
     0
176
     1
290
     0
176
     1
290
     0
176
     1
290
     0
176
     1
 90
       50
176
     1
 40
0.0
176
     1
 40
1.0
176
     1
 90
        0
176
     1
 62
    18
420
        0
176
     1
 90
       50
176
     1
 90
        3
176
     1
 62
     5
420
      255
176
     1
290
     0
176
     1
 90
       50
176
     1
 90
       50
176
     1
 90
       50
176
     1
290
     0
176
     1
 90
       50
176
     1
 62
   256
176
     0
 40
1.0
176
     0
 90
        2
176
     1
  1
strokes_ogs.tif
176
     1
290
     0
176
     1
 40
1.0
176
     1
 40
1.0
176
     1
  0
VISUALSTYLE
  5
30
102
{ACAD_REACTORS
330
29
102
}
330
29
100
AcDbVisualStyle
  2
Wireframe
 70
     5
177
     3
291
     0
 70
    58
 90
        0
176
     1
 90
        2
176
     1
 90
        0
176
     1
 90
        0
176
     1
 40
0.6
176
     1
 40
30.0
176
     1
 62
     7
420
 16777215
176
     1
 90
        1
176
     1
 90
        4
176
     1
 62
     7
176
     1
 62
   257
176
     1
 90
        1
176
     1
 90
        1
176
     1
 40
1.0
176
     1
 90
        0
176
     1
 62
   257
176
     1
 40
1.0
176
     1
 90
        1
176
     1
 90
        6
176
     1
 90
        2
176
     1
 62
     7
176
     1
 90
        3
176
     1
 90
        0
176
     1
 90
        0
176
     1
290
     0
176
     1
 90
        1
176
     1
 40
0.0
176
     1
 90
        0
176
     1
290
     0
176
     1
290
     1
176
     1
290
     1
176
     1
290
     0
176
     1
290
     0
176
     1
290
     0
176
     1
290
     0
176
     1
290
     0
176
     1
290
     0
176
     1
 90
       50
176
     1
 40
0.0
176
     1
 40
1.0
176
     1
 90
        0
176
     1
 62
    18
420
        0
176
     1
 90
       50
176
     1
 90
        3
176
     1
 62
     5
420
      255
176
     1
290
     0
176
     1
 90
       50
176
     1
 90
       50
176
     1
 90
       50
176
     1
290
     0
176
     1
 90
       50
176
     1
 62
   256
176
     0
 40
1.0
176
     0
 90
        2
176
     1
  1
strokes_ogs.tif
176
     1
290
     0
176
     1
 40
1.0
176
     1
 40
1.0
176
     1
  0
VISUALSTYLE
  5
3C
102
{ACAD_REACTORS
330
29
102
}
330
29
100
AcDbVisualStyle
  2
X-Ray
 70
    25
177
     3
291
     0
 70
    58
 90
        2
176
     1
 90
        2
176
     1
 90
        1
176
     1
 90
        1
176
     1
 40
0.5
176
     1
 40
30.0
176
     1
 62
     7
420
 16777215
176
     1
 90
        1
176
     1
 90
        0
176
     1
 62
     7
176
     1
 62
   257
176
     1
 90
        1
176
     1
 90
        1
176
     1
 40
1.0
176
     1
 90
        8
176
     1
 62
     7
176
     1
 40
1.0
176
     1
 90
        1
176
     1
 90
        6
176
     1
 90
        2
176
     1
 62
     7
176
     1
 90
        3
176
     1
 90
        0
176
     1
 90
        0
176
     1
290
     0
176
     1
 90
       13
176
     1
 40
0.0
176
     1
 90
        0
176
     1
290
     0
176
     1
290
     1
176
     1
290
     1
176
     1
290
     0
176
     1
290
     0
176
     1
290
     0
176
     1
290
     0
176
     1
290
     0
176
     1
290
     0
176
     1
 90
       50
176
     1
 40
0.0
176
     1
 40
1.0
176
     1
 90
        0
176
     1
 62
    18
420
        0
176
     1
 90
       50
176
     1
 90
        3
176
     1
 62
     5
420
      255
176
     1
290
     0
176
     1
 90
       50
176
     1
 90
       50
176
     1
 90
       50
176
     1
290
     0
176
     1
 90
       50
176
     1
 62
   256
176
     0
 40
1.0
176
     0
 90
        2
176
     1
  1
strokes_ogs.tif
176
     1
290
     0
176
     1
 40
1.0
176
     1
 40
1.0
176
     1
  0
DICTIONARYVAR
  5
3B1
102
{ACAD_REACTORS
330
3AB
102
}
330
3AB
100
DictionaryVariables
280
     0
  1
1:1
  0
DICTIONARYVAR
  5
3AD
102
{ACAD_REACTORS
330
3AB
102
}
330
3AB
100
DictionaryVariables
280
     0
  1
STANDARD
  0
DICTIONARYVAR
  5
3AC
102
{ACAD_REACTORS
330
3AB
102
}
330
3AB
100
DictionaryVariables
280
     0
  1
STANDARD
  0
DICTIONARYVAR
  5
3AE
102
{ACAD_REACTORS
330
3AB
102
}
330
3AB
100
DictionaryVariables
280
     0
  1
Imperial24
  0
DICTIONARYVAR
  5
3AF
102
{ACAD_REACTORS
330
3AB
102
}
330
3AB
100
DictionaryVariables
280
     0
  1
Imperial24
  0
DICTIONARYVAR
  5
3B3
102
{ACAD_REACTORS
330
3AB
102
}
330
3AB
100
DictionaryVariables
280
     0
  1
1
  0
DICTIONARYVAR
  5
3B4
102
{ACAD_REACTORS
330
3AB
102
}
330
3AB
100
DictionaryVariables
280
     0
  1
15
  0
DICTIONARYVAR
  5
3B2
102
{ACAD_REACTORS
330
3AB
102
}
330
3AB
100
DictionaryVariables
280
     0
  1
0
  0
DICTIONARYVAR
  5
3B0
102
{ACAD_REACTORS
330
3AB
102
}
330
3AB
100
DictionaryVariables
280
     0
  1
0
  0
DICTIONARY
  5
1A
330
19
100
AcDbDictionary
280
     1
281
     1
  3
BUMPTILE
360
1C
  3
DIFFUSETILE
360
1B
  3
OPACITYTILE
360
1F
  3
REFLECTIONTILE
360
1E
  3
REFRACTIONTILE
360
20
  3
SPECULARTILE
360
1D
  0
DICTIONARY
  5
12
330
11
100
AcDbDictionary
280
     1
281
     1
  3
BUMPTILE
360
14
  3
DIFFUSETILE
360
13
  3
OPACITYTILE
360
17
  3
REFLECTIONTILE
360
16
  3
REFRACTIONTILE
360
18
  3
SPECULARTILE
360
15
  0
DICTIONARY
  5
22
330
21
100
AcDbDictionary
280
     1
281
     1
  3
BUMPTILE
360
24
  3
DIFFUSETILE
360
23
  3
OPACITYTILE
360
27
  3
REFLECTIONTILE
360
26
  3
REFRACTIONTILE
360
28
  3
SPECULARTILE
360
25
  0
DICTIONARY
  5
3B5
330
64
100
AcDbDictionary
280
     1
281
     1
  3
ACAD_ROUNDTRIP_2008_TABLESTYLE_CELLSTYLEMAP
360
3B6
  0
XRECORD
  5
1C
102
{ACAD_REACTORS
330
1A
102
}
330
1A
100
AcDbXrecord
280
     1
270
     1
271
     1
  0
XRECORD
  5
1B
102
{ACAD_REACTORS
330
1A
102
}
330
1A
100
AcDbXrecord
280
     1
270
     1
271
     1
  0
XRECORD
  5
1F
102
{ACAD_REACTORS
330
1A
102
}
330
1A
100
AcDbXrecord
280
     1
270
     1
271
     1
  0
XRECORD
  5
1E
102
{ACAD_REACTORS
330
1A
102
}
330
1A
100
AcDbXrecord
280
     1
270
     1
271
     1
  0
XRECORD
  5
20
102
{ACAD_REACTORS
330
1A
102
}
330
1A
100
AcDbXrecord
280
     1
270
     1
271
     1
  0
XRECORD
  5
1D
102
{ACAD_REACTORS
330
1A
102
}
330
1A
100
AcDbXrecord
280
     1
270
     1
271
     1
  0
XRECORD
  5
14
102
{ACAD_REACTORS
330
12
102
}
330
12
100
AcDbXrecord
280
     1
270
     1
271
     1
  0
XRECORD
  5
13
102
{ACAD_REACTORS
330
12
102
}
330
12
100
AcDbXrecord
280
     1
270
     1
271
     1
  0
XRECORD
  5
17
102
{ACAD_REACTORS
330
12
102
}
330
12
100
AcDbXrecord
280
     1
270
     1
271
     1
  0
XRECORD
  5
16
102
{ACAD_REACTORS
330
12
102
}
330
12
100
AcDbXrecord
280
     1
270
     1
271
     1
  0
XRECORD
  5
18
102
{ACAD_REACTORS
330
12
102
}
330
12
100
AcDbXrecord
280
     1
270
     1
271
     1
  0
XRECORD
  5
15
102
{ACAD_REACTORS
330
12
102
}
330
12
100
AcDbXrecord
280
     1
270
     1
271
     1
  0
XRECORD
  5
24
102
{ACAD_REACTORS
330
22
102
}
330
22
100
AcDbXrecord
280
     1
270
     1
271
     1
  0
XRECORD
  5
23
102
{ACAD_REACTORS
330
22
102
}
330
22
100
AcDbXrecord
280
     1
270
     1
271
     1
  0
XRECORD
  5
27
102
{ACAD_REACTORS
330
22
102
}
330
22
100
AcDbXrecord
280
     1
270
     1
271
     1
  0
XRECORD
  5
26
102
{ACAD_REACTORS
330
22
102
}
330
22
100
AcDbXrecord
280
     1
270
     1
271
     1
  0
XRECORD
  5
28
102
{ACAD_REACTORS
330
22
102
}
330
22
100
AcDbXrecord
280
     1
270
     1
271
     1
  0
XRECORD
  5
25
102
{ACAD_REACTORS
330
22
102
}
330
22
100
AcDbXrecord
280
     1
270
     1
271
     1
  0
CELLSTYLEMAP
  5
3B6
102
{ACAD_REACTORS
330
3B5
102
}
330
3B5
100
AcDbCellStyleMap
 90
        3
300
CELLSTYLE
  1
TABLEFORMAT_BEGIN
 90
        5
170
     1
 91
        0
 92
    32768
 62
   257
 93
        1
300
CONTENTFORMAT
  1
CONTENTFORMAT_BEGIN
 90
        0
 91
        0
 92
      512
 93
        0
300

 40
0.0
140
1.0
 94
        5
 62
     0
340
55
144
0.25
309
CONTENTFORMAT_END
171
     0
 94
        0
309
TABLEFORMAT_END
  1
CELLSTYLE_BEGIN
 90
        1
 91
        1
300
_TITLE
309
CELLSTYLE_END
300
CELLSTYLE
  1
TABLEFORMAT_BEGIN
 90
        5
170
     1
 91
        0
 92
        0
 62
   257
 93
        1
300
CONTENTFORMAT
  1
CONTENTFORMAT_BEGIN
 90
        0
 91
        0
 92
      512
 93
        0
300

 40
0.0
140
1.0
 94
        5
 62
     0
340
55
144
0.18
309
CONTENTFORMAT_END
171
     0
 94
        0
309
TABLEFORMAT_END
  1
CELLSTYLE_BEGIN
 90
        2
 91
        1
300
_HEADER
309
CELLSTYLE_END
300
CELLSTYLE
  1
TABLEFORMAT_BEGIN
 90
        5
170
     1
 91
        0
 92
        0
 62
   257
 93
        1
300
CONTENTFORMAT
  1
CONTENTFORMAT_BEGIN
 90
        0
 91
        0
 92
      512
 93
        0
300

 40
0.0
140
1.0
 94
        2
 62
     0
340
55
144
0.18
309
CONTENTFORMAT_END
171
     0
 94
        0
309
TABLEFORMAT_END
  1
CELLSTYLE_BEGIN
 90
        3
 91
        2
300
_DATA
309
CELLSTYLE_END
  0
ENDSEC
  0
EOF
