  0
SECTION
  2
HEADER
  9
$ACADVER
  1
AC1032
  9
$ACADMAINTVER
 90
        5
  9
$DWGCODEPAGE
  3
ANSI_932
  9
$REQUIREDVERSIONS
160
                 0
  9
$INSBASE
 10
0.0
 20
0.0
 30
0.0
  9
$EXTMIN
 10
0.0
 20
0.0
 30
0.0
  9
$EXTMAX
 10
420.0
 20
297.0
 30
0.0
  9
$LIMMIN
 10
0.0
 20
0.0
  9
$LIMMAX
 10
420.0
 20
297.0
  9
$ORTHOMODE
 70
     0
  9
$REGENMODE
 70
     1
  9
$FILLMODE
 70
     1
  9
$QTEXTMODE
 70
     0
  9
$MIRRTEXT
 70
     0
  9
$LTSCALE
 40
1.0
  9
$ATTMODE
 70
     1
  9
$TEXTSIZE
 40
0.2
  9
$TRACEWID
 40
0.05
  9
$TEXTSTYLE
  7
STANDARD
  9
$CLAYER
  8
0
  9
$CELTYPE
  6
CONTINUOUS
  9
$CECOLOR
 62
   256
  9
$CELTSCALE
 40
1.0
  9
$DISPSILH
 70
     0
  9
$DIMSCALE
 40
1.0
  9
$DIMASZ
 40
0.18
  9
$DIMEXO
 40
0.0625
  9
$DIMDLI
 40
0.38
  9
$DIMRND
 40
0.0
  9
$DIMDLE
 40
0.0
  9
$DIMEXE
 40
0.18
  9
$DIMTP
 40
0.0
  9
$DIMTM
 40
0.0
  9
$DIMTXT
 40
0.18
  9
$DIMCEN
 40
0.09
  9
$DIMTSZ
 40
0.0
  9
$DIMTOL
 70
     0
  9
$DIMLIM
 70
     0
  9
$DIMTIH
 70
     1
  9
$DIMTOH
 70
     1
  9
$DIMSE1
 70
     0
  9
$DIMSE2
 70
     0
  9
$DIMTAD
 70
     0
  9
$DIMZIN
 70
     0
  9
$DIMBLK
  1

  9
$DIMASO
 70
     1
  9
$DIMSHO
 70
     1
  9
$DIMPOST
  1

  9
$DIMAPOST
  1

  9
$DIMALT
 70
     0
  9
$DIMALTD
 70
     2
  9
$DIMALTF
 40
25.4
  9
$DIMLFAC
 40
1.0
  9
$DIMTOFL
 70
     0
  9
$DIMTVP
 40
0.0
  9
$DIMTIX
 70
     0
  9
$DIMSOXD
 70
     0
  9
$DIMSAH
 70
     0
  9
$DIMBLK1
  1

  9
$DIMBLK2
  1

  9
$DIMSTYLE
  2
Standard
  9
$DIMCLRD
 70
     0
  9
$DIMCLRE
 70
     0
  9
$DIMCLRT
 70
     0
  9
$DIMTFAC
 40
1.0
  9
$DIMGAP
 40
0.09
  9
$DIMJUST
 70
     0
  9
$DIMSD1
 70
     0
  9
$DIMSD2
 70
     0
  9
$DIMTOLJ
 70
     1
  9
$DIMTZIN
 70
     0
  9
$DIMALTZ
 70
     0
  9
$DIMALTTZ
 70
     0
  9
$DIMUPT
 70
     0
  9
$DIMDEC
 70
     4
  9
$DIMTDEC
 70
     4
  9
$DIMALTU
 70
     2
  9
$DIMALTTD
 70
     2
  9
$DIMTXSTY
  7
STANDARD
  9
$DIMAUNIT
 70
     0
  9
$DIMADEC
 70
     0
  9
$DIMALTRND
 40
0.0
  9
$DIMAZIN
 70
     0
  9
$DIMDSEP
 70
    46
  9
$DIMATFIT
 70
     3
  9
$DIMFRAC
 70
     0
  9
$DIMLDRBLK
  1

  9
$DIMLUNIT
 70
     2
  9
$DIMLWD
 70
    -2
  9
$DIMLWE
 70
    -2
  9
$DIMTMOVE
 70
     0
  9
$DIMFXL
 40
1.0
  9
$DIMFXLON
 70
     0
  9
$DIMJOGANG
 40
0.7853981633974483
  9
$DIMTFILL
 70
     0
  9
$DIMTFILLCLR
 70
     0
  9
$DIMARCSYM
 70
     0
  9
$DIMLTYPE
  6

  9
$DIMLTEX1
  6

  9
$DIMLTEX2
  6

  9
$DIMTXTDIRECTION
 70
     0
  9
$LUNITS
 70
     2
  9
$LUPREC
 70
     4
  9
$SKETCHINC
 40
0.1
  9
$FILLETRAD
 40
0.0
  9
$AUNITS
 70
     0
  9
$AUPREC
 70
     0
  9
$MENU
  1
.
  9
$ELEVATION
 40
0.0
  9
$PELEVATION
 40
0.0
  9
$THICKNESS
 40
0.0
  9
$LIMCHECK
 70
     0
  9
$CHAMFERA
 40
0.0
  9
$CHAMFERB
 40
0.0
  9
$CHAMFERC
 40
0.0
  9
$CHAMFERD
 40
0.0
  9
$SKPOLY
 70
     0
  9
$TDCREATE
 40
2459367.484907407
  9
$TDUCREATE
 40
2459367.109907407
  9
$TDUPDATE
 40
2459367.484907407
  9
$TDUUPDATE
 40
2459367.109907407
  9
$TDINDWG
 40
0.0000000000
  9
$TDUSRTIMER
 40
0.0000000000
  9
$USRTIMER
 70
     1
  9
$ANGBASE
 50
0.0
  9
$ANGDIR
 70
     0
  9
$PDMODE
 70
     0
  9
$PDSIZE
 40
0.0
  9
$PLINEWID
 40
0.0
  9
$SPLFRAME
 70
     0
  9
$SPLINETYPE
 70
     6
  9
$SPLINESEGS
 70
     8
  9
$HANDSEED
  5
47E
  9
$SURFTAB1
 70
     6
  9
$SURFTAB2
 70
     6
  9
$SURFTYPE
 70
     6
  9
$SURFU
 70
     6
  9
$SURFV
 70
     6
  9
$UCSBASE
  2

  9
$UCSNAME
  2

  9
$UCSORG
 10
0.0
 20
0.0
 30
0.0
  9
$UCSXDIR
 10
1.0
 20
0.0
 30
0.0
  9
$UCSYDIR
 10
0.0
 20
1.0
 30
0.0
  9
$UCSORTHOREF
  2

  9
$UCSORTHOVIEW
 70
     0
  9
$UCSORGTOP
 10
0.0
 20
0.0
 30
0.0
  9
$UCSORGBOTTOM
 10
0.0
 20
0.0
 30
0.0
  9
$UCSORGLEFT
 10
0.0
 20
0.0
 30
0.0
  9
$UCSORGRIGHT
 10
0.0
 20
0.0
 30
0.0
  9
$UCSORGFRONT
 10
0.0
 20
0.0
 30
0.0
  9
$UCSORGBACK
 10
0.0
 20
0.0
 30
0.0
  9
$PUCSBASE
  2

  9
$PUCSNAME
  2

  9
$PUCSORG
 10
0.0
 20
0.0
 30
0.0
  9
$PUCSXDIR
 10
1.0
 20
0.0
 30
0.0
  9
$PUCSYDIR
 10
0.0
 20
1.0
 30
0.0
  9
$PUCSORTHOREF
  2

  9
$PUCSORTHOVIEW
 70
     0
  9
$PUCSORGTOP
 10
0.0
 20
0.0
 30
0.0
  9
$PUCSORGBOTTOM
 10
0.0
 20
0.0
 30
0.0
  9
$PUCSORGLEFT
 10
0.0
 20
0.0
 30
0.0
  9
$PUCSORGRIGHT
 10
0.0
 20
0.0
 30
0.0
  9
$PUCSORGFRONT
 10
0.0
 20
0.0
 30
0.0
  9
$PUCSORGBACK
 10
0.0
 20
0.0
 30
0.0
  9
$USERI1
 70
     0
  9
$USERI2
 70
     0
  9
$USERI3
 70
     0
  9
$USERI4
 70
     0
  9
$USERI5
 70
     0
  9
$USERR1
 40
0.0
  9
$USERR2
 40
0.0
  9
$USERR3
 40
0.0
  9
$USERR4
 40
0.0
  9
$USERR5
 40
0.0
  9
$WORLDVIEW
 70
     1
  9
$SHADEDGE
 70
     3
  9
$SHADEDIF
 70
    70
  9
$TILEMODE
 70
     1
  9
$MAXACTVP
 70
    64
  9
$PINSBASE
 10
0.0
 20
0.0
 30
0.0
  9
$PLIMCHECK
 70
     0
  9
$PEXTMIN
 10
1.000000000000000E+20
 20
1.000000000000000E+20
 30
1.000000000000000E+20
  9
$PEXTMAX
 10
-1.000000000000000E+20
 20
-1.000000000000000E+20
 30
-1.000000000000000E+20
  9
$PLIMMIN
 10
0.0
 20
0.0
  9
$PLIMMAX
 10
12.0
 20
9.0
  9
$UNITMODE
 70
     0
  9
$VISRETAIN
 70
     1
  9
$PLINEGEN
 70
     0
  9
$PSLTSCALE
 70
     1
  9
$TREEDEPTH
 70
  3020
  9
$CMLSTYLE
  2
Standard
  9
$CMLJUST
 70
     0
  9
$CMLSCALE
 40
1.0
  9
$PROXYGRAPHICS
 70
     1
  9
$MEASUREMENT
 70
     0
  9
$CELWEIGHT
370
    -1
  9
$ENDCAPS
280
     0
  9
$JOINSTYLE
280
     0
  9
$LWDISPLAY
290
     0
  9
$INSUNITS
 70
     0
  9
$HYPERLINKBASE
  1

  9
$STYLESHEET
  1

  9
$XEDIT
290
     1
  9
$CEPSNTYPE
380
     0
  9
$PSTYLEMODE
290
     1
  9
$FINGERPRINTGUID
  2
{4B1DB6F6-C08C-C845-931B-DA8EF1035C51}
  9
$VERSIONGUID
  2
{05231EC9-4412-E046-A9B0-C976ECADC210}
  9
$EXTNAMES
290
     1
  9
$PSVPSCALE
 40
0.0
  9
$OLESTARTUP
290
     0
  9
$SORTENTS
280
   127
  9
$INDEXCTL
280
     0
  9
$HIDETEXT
280
     0
  9
$XCLIPFRAME
280
     2
  9
$HALOGAP
280
     0
  9
$OBSCOLOR
 70
   257
  9
$OBSLTYPE
280
     0
  9
$INTERSECTIONDISPLAY
280
     0
  9
$INTERSECTIONCOLOR
 70
   257
  9
$DIMASSOC
280
     1
  9
$PROJECTNAME
  1

  9
$CAMERADISPLAY
290
     0
  9
$LENSLENGTH
 40
50.0
  9
$CAMERAHEIGHT
 40
0.0
  9
$STEPSPERSEC
 40
2.0
  9
$STEPSIZE
 40
6.0
  9
$3DDWFPREC
 40
2.0
  9
$PSOLWIDTH
 40
0.25
  9
$PSOLHEIGHT
 40
4.0
  9
$LOFTANG1
 40
1.570796326794896
  9
$LOFTANG2
 40
1.570796326794896
  9
$LOFTMAG1
 40
0.0
  9
$LOFTMAG2
 40
0.0
  9
$LOFTPARAM
 70
     7
  9
$LOFTNORMALS
280
     1
  9
$LATITUDE
 40
37.795
  9
$LONGITUDE
 40
-122.394
  9
$NORTHDIRECTION
 40
0.0
  9
$TIMEZONE
 70
 -8000
  9
$LIGHTGLYPHDISPLAY
280
     1
  9
$TILEMODELIGHTSYNCH
280
     1
  9
$CMATERIAL
347
11
  9
$SOLIDHIST
280
     0
  9
$SHOWHIST
280
     1
  9
$DWFFRAME
280
     2
  9
$DGNFRAME
280
     0
  9
$REALWORLDSCALE
290
     1
  9
$INTERFERECOLOR
 62
     1
  9
$INTERFEREOBJVS
345
33
  9
$INTERFEREVPVS
346
30
  9
$CSHADOW
280
     0
  9
$SHADOWPLANELOCATION
 40
0.0
  0
ENDSEC
  0
SECTION
  2
CLASSES
  0
CLASS
  1
ACDBDICTIONARYWDFLT
  2
AcDbDictionaryWithDefault
  3
ObjectDBX Classes
 90
        0
 91
        1
280
     0
281
     0
  0
CLASS
  1
MATERIAL
  2
AcDbMaterial
  3
ObjectDBX Classes
 90
     1153
 91
        3
280
     0
281
     0
  0
CLASS
  1
VISUALSTYLE
  2
AcDbVisualStyle
  3
ObjectDBX Classes
 90
     4095
 91
       24
280
     0
281
     0
  0
CLASS
  1
SCALE
  2
AcDbScale
  3
ObjectDBX Classes
 90
     1153
 91
       17
280
     0
281
     0
  0
CLASS
  1
TABLESTYLE
  2
AcDbTableStyle
  3
ObjectDBX Classes
 90
     4095
 91
        1
280
     0
281
     0
  0
CLASS
  1
MLEADERSTYLE
  2
AcDbMLeaderStyle
  3
ACDB_MLEADERSTYLE_CLASS
 90
     4095
 91
        1
280
     0
281
     0
  0
CLASS
  1
ACDBSECTIONVIEWSTYLE
  2
AcDbSectionViewStyle
  3
ObjectDBX Classes
 90
     1025
 91
        1
280
     0
281
     0
  0
CLASS
  1
ACDBDETAILVIEWSTYLE
  2
AcDbDetailViewStyle
  3
ObjectDBX Classes
 90
     1025
 91
        1
280
     0
281
     0
  0
CLASS
  1
DICTIONARYVAR
  2
AcDbDictionaryVar
  3
ObjectDBX Classes
 90
        0
 91
        9
280
     0
281
     0
  0
CLASS
  1
CELLSTYLEMAP
  2
AcDbCellStyleMap
  3
ObjectDBX Classes
 90
     1152
 91
        1
280
     0
281
     0
  0
ENDSEC
  0
SECTION
  2
TABLES
  0
TABLE
  2
VPORT
  5
8
330
0
100
AcDbSymbolTable
 70
     1
  0
VPORT
  5
A9
330
8
100
AcDbSymbolTableRecord
100
AcDbViewportTableRecord
  2
*Active
 70
     0
 10
0.0
 20
0.0
 11
1.0
 21
1.0
 12
500.0
 22
500.0
 13
0.0
 23
0.0
 14
1.0
 24
1.0
 15
0.0
 25
0.0
 16
0.0
 26
0.0
 36
1.0
 17
0.0
 27
0.0
 37
0.0
 40
12.0
 41
1.0
 42
50.0
 43
0.0
 44
0.0
 50
0.0
 51
0.0
 71
     0
 72
   100
 73
     1
 74
     1
 75
     0
 76
     0
 77
     0
 78
     0
281
     0
 65
     1
110
0.0
120
0.0
130
0.0
111
1.0
121
0.0
131
0.0
112
0.0
122
1.0
132
0.0
 79
     0
146
0.0
348
2F
 60
     3
 61
     5
292
     1
282
     1
141
0.0
142
0.0
 63
   250
421
  3355443
  0
ENDTAB
  0
TABLE
  2
LTYPE
  5
5
330
0
100
AcDbSymbolTable
 70
    35
  0
LTYPE
  5
5A
330
5
100
AcDbSymbolTableRecord
100
AcDbLinetypeTableRecord
  2
ByBlock
 70
     0
  3

 72
    65
 73
     0
 40
0.0
  0
LTYPE
  5
5B
330
5
100
AcDbSymbolTableRecord
100
AcDbLinetypeTableRecord
  2
ByLayer
 70
     0
  3

 72
    65
 73
     0
 40
0.0
  0
LTYPE
  5
5C
330
5
100
AcDbSymbolTableRecord
100
AcDbLinetypeTableRecord
  2
CONTINUOUS
 70
     0
  3
実線
 72
    65
 73
     0
 40
0.0
  0
LTYPE
  5
73
330
5
100
AcDbSymbolTableRecord
100
AcDbLinetypeTableRecord
  2
DASHED1
 70
     0
  3
--  --  --  --  --  --  --  --  
 72
    65
 73
     2
 40
2.5
 49
1.25
 74
     0
 49
-1.25
 74
     0
  0
LTYPE
  5
74
330
5
100
AcDbSymbolTableRecord
100
AcDbLinetypeTableRecord
  2
DASHED2
 70
     0
  3
----    ----    ----    ----    
 72
    65
 73
     2
 40
5.0
 49
2.5
 74
     0
 49
-2.5
 74
     0
  0
LTYPE
  5
75
330
5
100
AcDbSymbolTableRecord
100
AcDbLinetypeTableRecord
  2
DASHED3
 70
     0
  3
------  ------  ------  ------  
 72
    65
 73
     2
 40
5.0
 49
3.75
 74
     0
 49
-1.25
 74
     0
  0
LTYPE
  5
76
330
5
100
AcDbSymbolTableRecord
100
AcDbLinetypeTableRecord
  2
CENTER1
 70
     0
  3
----- - ----- - ----- - ----- - 
 72
    65
 73
     4
 40
10.0
 49
6.25
 74
     0
 49
-1.25
 74
     0
 49
1.25
 74
     0
 49
-1.25
 74
     0
  0
LTYPE
  5
77
330
5
100
AcDbSymbolTableRecord
100
AcDbLinetypeTableRecord
  2
CENTER2
 70
     0
  3
----------  --  ----------  --  
 72
    65
 73
     4
 40
20.0
 49
12.5
 74
     0
 49
-2.5
 74
     0
 49
2.5
 74
     0
 49
-2.5
 74
     0
  0
LTYPE
  5
78
330
5
100
AcDbSymbolTableRecord
100
AcDbLinetypeTableRecord
  2
PHANTOM1
 70
     0
  3
--- - - --- - - --- - - --- - - 
 72
    65
 73
     6
 40
10.0
 49
3.25
 74
     0
 49
-1.25
 74
     0
 49
1.25
 74
     0
 49
-1.25
 74
     0
 49
1.25
 74
     0
 49
-1.25
 74
     0
  0
LTYPE
  5
79
330
5
100
AcDbSymbolTableRecord
100
AcDbLinetypeTableRecord
  2
PHANTOM2
 70
     0
  3
--------  -  -  --------  -  -  
 72
    65
 73
     6
 40
20.0
 49
10.0
 74
     0
 49
-2.5
 74
     0
 49
1.25
 74
     0
 49
-2.5
 74
     0
 49
1.25
 74
     0
 49
-2.5
 74
     0
  0
LTYPE
  5
7A
330
5
100
AcDbSymbolTableRecord
100
AcDbLinetypeTableRecord
  2
DOT
 70
     0
  3
-   -   -   -   -   -   -   -   
 72
    65
 73
     2
 40
2.5
 49
0.625
 74
     0
 49
-1.875
 74
     0
  0
LTYPE
  5
7B
330
5
100
AcDbSymbolTableRecord
100
AcDbLinetypeTableRecord
  2
DUMMY
 70
     0
  3
ダミー
 72
    65
 73
     0
 40
0.0
  0
LTYPE
  5
7C
330
5
100
AcDbSymbolTableRecord
100
AcDbLinetypeTableRecord
  2
RAND1
 70
     0
  3
ランダム線1
 72
    65
 73
     4
 40
10.0
 49
1.0
 74
     0
 49
-2.0
 74
     0
 49
3.0
 74
     0
 49
-4.0
 74
     0
  0
LTYPE
  5
7D
330
5
100
AcDbSymbolTableRecord
100
AcDbLinetypeTableRecord
  2
RAND2
 70
     0
  3
ランダム線2
 72
    65
 73
     4
 40
14.0
 49
2.0
 74
     0
 49
-3.0
 74
     0
 49
4.0
 74
     0
 49
-5.0
 74
     0
  0
LTYPE
  5
7E
330
5
100
AcDbSymbolTableRecord
100
AcDbLinetypeTableRecord
  2
RAND3
 70
     0
  3
ランダム線3
 72
    65
 73
     4
 40
18.0
 49
3.0
 74
     0
 49
-4.0
 74
     0
 49
5.0
 74
     0
 49
-6.0
 74
     0
  0
LTYPE
  5
7F
330
5
100
AcDbSymbolTableRecord
100
AcDbLinetypeTableRecord
  2
RAND4
 70
     0
  3
ランダム線4
 72
    65
 73
     4
 40
22.0
 49
4.0
 74
     0
 49
-5.0
 74
     0
 49
6.0
 74
     0
 49
-7.0
 74
     0
  0
LTYPE
  5
80
330
5
100
AcDbSymbolTableRecord
100
AcDbLinetypeTableRecord
  2
RAND5
 70
     0
  3
ランダム線5
 72
    65
 73
     4
 40
26.0
 49
5.0
 74
     0
 49
-6.0
 74
     0
 49
7.0
 74
     0
 49
-8.0
 74
     0
  0
LTYPE
  5
81
330
5
100
AcDbSymbolTableRecord
100
AcDbLinetypeTableRecord
  2
LONG1
 70
     0
  3
----------  --  ----------  --  
 72
    65
 73
     4
 40
40.0
 49
32.5
 74
     0
 49
-2.5
 74
     0
 49
2.5
 74
     0
 49
-2.5
 74
     0
  0
LTYPE
  5
82
330
5
100
AcDbSymbolTableRecord
100
AcDbLinetypeTableRecord
  2
LONG2
 70
     0
  3
--------  -  -  --------  -  -  
 72
    65
 73
     6
 40
40.0
 49
30.0
 74
     0
 49
-2.5
 74
     0
 49
1.25
 74
     0
 49
-2.5
 74
     0
 49
1.25
 74
     0
 49
-2.5
 74
     0
  0
LTYPE
  5
83
330
5
100
AcDbSymbolTableRecord
100
AcDbLinetypeTableRecord
  2
LONG3
 70
     0
  3
+++++++++++++++..+++++++++++++++
 72
    65
 73
     2
 40
40.0
 49
37.5
 74
     0
 49
-2.5
 74
     0
  0
LTYPE
  5
84
330
5
100
AcDbSymbolTableRecord
100
AcDbLinetypeTableRecord
  2
LONG4
 70
     0
  3
+++++++++++++++..+++++++++++++++
 72
    65
 73
     2
 40
80.0
 49
75.0
 74
     0
 49
-5.0
 74
     0
  0
LTYPE
  5
85
330
5
100
AcDbSymbolTableRecord
100
AcDbLinetypeTableRecord
  2
LONG5
 70
     0
  3
----------  --  ----------  --  
 72
    65
 73
     4
 40
60.0
 49
37.5
 74
     0
 49
-7.5
 74
     0
 49
7.5
 74
     0
 49
-7.5
 74
     0
  0
LTYPE
  5
86
330
5
100
AcDbSymbolTableRecord
100
AcDbLinetypeTableRecord
  2
DASHED
 70
     0
  3
-------   -------------   ------
 72
    65
 73
     2
 40
7.5
 49
6.0
 74
     0
 49
-1.5
 74
     0
  0
LTYPE
  5
87
330
5
100
AcDbSymbolTableRecord
100
AcDbLinetypeTableRecord
  2
DASHED_SPACED
 70
     0
  3
----        --------        ----
 72
    65
 73
     2
 40
12.0
 49
6.0
 74
     0
 49
-6.0
 74
     0
  0
LTYPE
  5
88
330
5
100
AcDbSymbolTableRecord
100
AcDbLinetypeTableRecord
  2
LONG_DASHED_DOTTED
 70
     0
  3
------------- --- --------------
 72
    65
 73
     4
 40
15.25
 49
12.0
 74
     0
 49
-1.5
 74
     0
 49
0.25
 74
     0
 49
-1.5
 74
     0
  0
LTYPE
  5
89
330
5
100
AcDbSymbolTableRecord
100
AcDbLinetypeTableRecord
  2
LONG_DASHED_DOUBLE-DOTTED
 70
     0
  3
----------- --- --- ------------
 72
    65
 73
     6
 40
17.0
 49
12.0
 74
     0
 49
-1.5
 74
     0
 49
0.25
 74
     0
 49
-1.5
 74
     0
 49
0.25
 74
     0
 49
-1.5
 74
     0
  0
LTYPE
  5
8A
330
5
100
AcDbSymbolTableRecord
100
AcDbLinetypeTableRecord
  2
LONG_DASHED_TRIPLICATE-DOTTED
 70
     0
  3
--------- --- --- --- ----------
 72
    65
 73
     8
 40
18.75
 49
12.0
 74
     0
 49
-1.5
 74
     0
 49
0.25
 74
     0
 49
-1.5
 74
     0
 49
0.25
 74
     0
 49
-1.5
 74
     0
 49
0.25
 74
     0
 49
-1.5
 74
     0
  0
LTYPE
  5
8B
330
5
100
AcDbSymbolTableRecord
100
AcDbLinetypeTableRecord
  2
DOTTED
 70
     0
  3
   -       -       -       -    
 72
    65
 73
     2
 40
1.75
 49
0.25
 74
     0
 49
-1.5
 74
     0
  0
LTYPE
  5
8C
330
5
100
AcDbSymbolTableRecord
100
AcDbLinetypeTableRecord
  2
CHAIN
 70
     0
  3
-------------- -- --------------
 72
    65
 73
     4
 40
18.5
 49
12.0
 74
     0
 49
-1.5
 74
     0
 49
3.5
 74
     0
 49
-1.5
 74
     0
  0
LTYPE
  5
8D
330
5
100
AcDbSymbolTableRecord
100
AcDbLinetypeTableRecord
  2
CHAIN_DOUBLE_DASH
 70
     0
  3
------------ -- -- -------------
 72
    65
 73
     6
 40
23.5
 49
12.0
 74
     0
 49
-1.5
 74
     0
 49
3.5
 74
     0
 49
-1.5
 74
     0
 49
3.5
 74
     0
 49
-1.5
 74
     0
  0
LTYPE
  5
8E
330
5
100
AcDbSymbolTableRecord
100
AcDbLinetypeTableRecord
  2
DASHED_DOTTED
 70
     0
  3
-----------     -     ----------
 72
    65
 73
     4
 40
9.25
 49
6.0
 74
     0
 49
-1.5
 74
     0
 49
0.25
 74
     0
 49
-1.5
 74
     0
  0
LTYPE
  5
8F
330
5
100
AcDbSymbolTableRecord
100
AcDbLinetypeTableRecord
  2
DOUBLE-DASHED_DOTTED
 70
     0
  3
------   -----------   -   -----
 72
    65
 73
     6
 40
16.75
 49
6.0
 74
     0
 49
-1.5
 74
     0
 49
6.0
 74
     0
 49
-1.5
 74
     0
 49
0.25
 74
     0
 49
-1.5
 74
     0
  0
LTYPE
  5
90
330
5
100
AcDbSymbolTableRecord
100
AcDbLinetypeTableRecord
  2
DASHED_DOUBLE-DOTTED
 70
     0
  3
---------    -    -    ---------
 72
    65
 73
     6
 40
11.0
 49
6.0
 74
     0
 49
-1.5
 74
     0
 49
0.25
 74
     0
 49
-1.5
 74
     0
 49
0.25
 74
     0
 49
-1.5
 74
     0
  0
LTYPE
  5
91
330
5
100
AcDbSymbolTableRecord
100
AcDbLinetypeTableRecord
  2
DOUBLE-DASHED_DOUBLE-DOTTED
 70
     0
  3
-----   ---------   -   -   ----
 72
    65
 73
     8
 40
18.5
 49
6.0
 74
     0
 49
-1.5
 74
     0
 49
6.0
 74
     0
 49
-1.5
 74
     0
 49
0.25
 74
     0
 49
-1.5
 74
     0
 49
0.25
 74
     0
 49
-1.5
 74
     0
  0
LTYPE
  5
92
330
5
100
AcDbSymbolTableRecord
100
AcDbLinetypeTableRecord
  2
DASHED_TRIPLICATE-DOTTED
 70
     0
  3
-------    -    -    -    ------
 72
    65
 73
     8
 40
12.75
 49
6.0
 74
     0
 49
-1.5
 74
     0
 49
0.25
 74
     0
 49
-1.5
 74
     0
 49
0.25
 74
     0
 49
-1.5
 74
     0
 49
0.25
 74
     0
 49
-1.5
 74
     0
  0
LTYPE
  5
93
330
5
100
AcDbSymbolTableRecord
100
AcDbLinetypeTableRecord
  2
DOUBLE-DASHED_TRIPLICATE-DOTTED
 70
     0
  3
-----  ---------  -  -  -  -----
 72
    65
 73
    10
 40
20.25
 49
6.0
 74
     0
 49
-1.5
 74
     0
 49
6.0
 74
     0
 49
-1.5
 74
     0
 49
0.25
 74
     0
 49
-1.5
 74
     0
 49
0.25
 74
     0
 49
-1.5
 74
     0
 49
0.25
 74
     0
 49
-1.5
 74
     0
  0
LTYPE
  5
94
330
5
100
AcDbSymbolTableRecord
100
AcDbLinetypeTableRecord
  2
UNDEFINED
 70
     0
  3
--------------------------------
 72
    65
 73
     0
 40
0.0
  0
ENDTAB
  0
TABLE
  2
LAYER
  5
2
330
0
100
AcDbSymbolTable
 70
    20
  0
LAYER
  5
54
330
2
100
AcDbSymbolTableRecord
100
AcDbLayerTableRecord
  2
0
 70
     0
 62
     7
  6
CONTINUOUS
370
    -3
390
F
347
21
348
0
  0
LAYER
  5
96
330
2
100
AcDbSymbolTableRecord
100
AcDbLayerTableRecord
  2
_2-0_境界線
 70
     0
 62
     7
  6
CONTINUOUS
370
    -3
390
F
347
21
348
0
  0
LAYER
  5
97
330
2
100
AcDbSymbolTableRecord
100
AcDbLayerTableRecord
  2
_2-1_工作物
 70
     0
 62
     7
  6
CONTINUOUS
370
    -3
390
F
347
21
348
0
  0
LAYER
  5
98
330
2
100
AcDbSymbolTableRecord
100
AcDbLayerTableRecord
  2
_2-2_舗装
 70
     0
 62
     7
  6
CONTINUOUS
370
    -3
390
F
347
21
348
0
  0
LAYER
  5
99
330
2
100
AcDbSymbolTableRecord
100
AcDbLayerTableRecord
  2
_2-3_植栽
 70
     0
 62
     7
  6
CONTINUOUS
370
    -3
390
F
347
21
348
0
  0
LAYER
  5
9A
330
2
100
AcDbSymbolTableRecord
100
AcDbLayerTableRecord
  2
_2-4_仕上げ
 70
     0
 62
     7
  6
CONTINUOUS
370
    -3
390
F
347
21
348
0
  0
LAYER
  5
9B
330
2
100
AcDbSymbolTableRecord
100
AcDbLayerTableRecord
  2
_2-5_建具枠
 70
     0
 62
     7
  6
CONTINUOUS
370
    -3
390
F
347
21
348
0
  0
LAYER
  5
9C
330
2
100
AcDbSymbolTableRecord
100
AcDbLayerTableRecord
  2
_2-6_建具
 70
     0
 62
     7
  6
CONTINUOUS
370
    -3
390
F
347
21
348
0
  0
LAYER
  5
9D
330
2
100
AcDbSymbolTableRecord
100
AcDbLayerTableRecord
  2
_2-B_敷地外要素
 70
     0
 62
     7
  6
CONTINUOUS
370
    -3
390
F
347
21
348
0
  0
LAYER
  5
9E
330
2
100
AcDbSymbolTableRecord
100
AcDbLayerTableRecord
  2
_2-C_ハッチ
 70
     0
 62
     7
  6
CONTINUOUS
370
    -3
390
F
347
21
348
0
  0
LAYER
  5
9F
330
2
100
AcDbSymbolTableRecord
100
AcDbLayerTableRecord
  2
_2-D_寸法
 70
     0
 62
     7
  6
CONTINUOUS
370
    -3
390
F
347
21
348
0
  0
LAYER
  5
A0
330
2
100
AcDbSymbolTableRecord
100
AcDbLayerTableRecord
  2
_2-E_文字
 70
     0
 62
     7
  6
CONTINUOUS
370
    -3
390
F
347
21
348
0
  0
LAYER
  5
A1
330
2
100
AcDbSymbolTableRecord
100
AcDbLayerTableRecord
  2
_2-F_補助線
 70
     0
 62
     7
  6
CONTINUOUS
370
    -3
390
F
347
21
348
0
  0
LAYER
  5
A2
330
2
100
AcDbSymbolTableRecord
100
AcDbLayerTableRecord
  2
_F-0_F-0___
 70
     0
 62
     7
  6
CONTINUOUS
370
    -3
390
F
347
21
348
0
  0
LAYER
  5
A3
330
2
100
AcDbSymbolTableRecord
100
AcDbLayerTableRecord
  2
_F-1_図面枠
 70
     0
 62
     7
  6
CONTINUOUS
370
    -3
390
F
347
21
348
0
  0
LAYER
  5
A4
330
2
100
AcDbSymbolTableRecord
100
AcDbLayerTableRecord
  2
_F-E_文字
 70
     0
 62
     7
  6
CONTINUOUS
370
    -3
390
F
347
21
348
0
  0
LAYER
  5
A5
330
2
100
AcDbSymbolTableRecord
100
AcDbLayerTableRecord
  2
_F-F_補助線
 70
     0
 62
     7
  6
CONTINUOUS
370
    -3
390
F
347
21
348
0
  0
LAYER
  5
A6
330
2
100
AcDbSymbolTableRecord
100
AcDbLayerTableRecord
  2
ADD_LINE
 70
     0
 62
     7
  6
CONTINUOUS
370
    -3
390
F
347
21
348
0
  0
LAYER
  5
AC
330
2
100
AcDbSymbolTableRecord
100
AcDbLayerTableRecord
  2
_1-f_補助線
 70
     0
 62
     7
  6
CONTINUOUS
370
    -3
390
F
347
21
348
0
  0
LAYER
  5
AF
330
2
100
AcDbSymbolTableRecord
100
AcDbLayerTableRecord
  2
_1-e_文字
 70
     0
 62
     7
  6
CONTINUOUS
370
    -3
390
F
347
21
348
0
  0
ENDTAB
  0
TABLE
  2
STYLE
  5
3
330
0
100
AcDbSymbolTable
 70
     3
  0
STYLE
  5
55
330
3
100
AcDbSymbolTableRecord
100
AcDbTextStyleTableRecord
  2
STANDARD
 70
     0
 40
0.0
 41
1.0
 50
0.0
 71
     0
 42
0.2
  3
txt
  4
bigfont.shx
  0
STYLE
  5
59
330
3
100
AcDbSymbolTableRecord
100
AcDbTextStyleTableRecord
  2
Annotative
 70
     0
 40
0.0
 41
1.0
 50
0.0
 71
     0
 42
0.2
  3
txt
  4

1001
AcadAnnotative
1000
AnnotativeData
1002
{
1070
     1
1070
     1
1002
}
  0
STYLE
  5
95
330
3
100
AcDbSymbolTableRecord
100
AcDbTextStyleTableRecord
  2
TATEGAKI
 70
     4
 40
0.0
 41
1.0
 50
0.0
 71
     0
 42
1.0
  3
txt
  4
bigfont.shx
  0
ENDTAB
  0
TABLE
  2
VIEW
  5
6
330
0
100
AcDbSymbolTable
 70
     0
  0
ENDTAB
  0
TABLE
  2
UCS
  5
7
330
0
100
AcDbSymbolTable
 70
     0
  0
ENDTAB
  0
TABLE
  2
APPID
  5
9
330
0
100
AcDbSymbolTable
 70
     2
  0
APPID
  5
56
330
9
100
AcDbSymbolTableRecord
100
AcDbRegAppTableRecord
  2
ACAD
 70
     0
  0
APPID
  5
5D
330
9
100
AcDbSymbolTableRecord
100
AcDbRegAppTableRecord
  2
AcadAnnotative
 70
     0
  0
ENDTAB
  0
TABLE
  2
DIMSTYLE
  5
A
330
0
100
AcDbSymbolTable
 70
     2
100
AcDbDimStyleTable
 71
     0
  0
DIMSTYLE
105
57
330
A
100
AcDbSymbolTableRecord
100
AcDbDimStyleTableRecord
  2
Standard
 70
     0
340
55
  0
DIMSTYLE
105
58
330
A
100
AcDbSymbolTableRecord
100
AcDbDimStyleTableRecord
  2
Annotative
 70
     0
340
55
1001
AcadAnnotative
1000
AnnotativeData
1002
{
1070
     1
1070
     1
1002
}
  0
ENDTAB
  0
TABLE
  2
BLOCK_RECORD
  5
1
330
0
100
AcDbSymbolTable
 70
     9
  0
BLOCK_RECORD
  5
6F
330
1
100
AcDbSymbolTableRecord
100
AcDbBlockTableRecord
  2
*Model_Space
340
72
 70
     0
280
     1
281
     0
  0
BLOCK_RECORD
  5
6B
330
1
100
AcDbSymbolTableRecord
100
AcDbBlockTableRecord
  2
*Paper_Space
340
6E
 70
     0
280
     1
281
     0
  0
BLOCK_RECORD
  5
AA
330
1
100
AcDbSymbolTableRecord
100
AcDbBlockTableRecord
  2
-000-え
340
0
102
{BLKREFS
331
462
102
}
 70
     0
280
     1
281
     0
  0
BLOCK_RECORD
  5
B3
330
1
100
AcDbSymbolTableRecord
100
AcDbBlockTableRecord
  2
-001-お
340
0
102
{BLKREFS
331
463
102
}
 70
     0
280
     1
281
     0
  0
BLOCK_RECORD
  5
BA
330
1
100
AcDbSymbolTableRecord
100
AcDbBlockTableRecord
  2
-002-か
340
0
102
{BLKREFS
331
464
102
}
 70
     0
280
     1
281
     0
  0
BLOCK_RECORD
  5
C1
330
1
100
AcDbSymbolTableRecord
100
AcDbBlockTableRecord
  2
-003-き
340
0
102
{BLKREFS
331
465
102
}
 70
     0
280
     1
281
     0
  0
BLOCK_RECORD
  5
C8
330
1
100
AcDbSymbolTableRecord
100
AcDbBlockTableRecord
  2
-004-く
340
0
102
{BLKREFS
331
466
102
}
 70
     0
280
     1
281
     0
  0
BLOCK_RECORD
  5
CF
330
1
100
AcDbSymbolTableRecord
100
AcDbBlockTableRecord
  2
-005-け
340
0
102
{BLKREFS
331
467
102
}
 70
     0
280
     1
281
     0
  0
BLOCK_RECORD
  5
D6
330
1
100
AcDbSymbolTableRecord
100
AcDbBlockTableRecord
  2
-006-あｓ
340
0
102
{BLKREFS
331
46A
102
}
 70
     0
280
     1
281
     0
  0
BLOCK_RECORD
  5
DB
330
1
100
AcDbSymbolTableRecord
100
AcDbBlockTableRecord
  2
-007-２３２１
340
0
102
{BLKREFS
331
46F
102
}
 70
     0
280
     1
281
     0
  0
BLOCK_RECORD
  5
E0
330
1
100
AcDbSymbolTableRecord
100
AcDbBlockTableRecord
  2
-008-うｙ
340
0
102
{BLKREFS
331
470
102
}
 70
     0
280
     1
281
     0
  0
ENDTAB
  0
ENDSEC
  0
SECTION
  2
BLOCKS
  0
BLOCK
  5
70
330
6F
100
AcDbEntity
  8
0
100
AcDbBlockBegin
  2
*Model_Space
 70
     0
 10
0.0
 20
0.0
 30
0.0
  3
*Model_Space
  1

  0
ENDBLK
  5
71
330
6F
100
AcDbEntity
  8
0
100
AcDbBlockEnd
  0
BLOCK
  5
6C
330
6B
100
AcDbEntity
 67
     1
  8
0
100
AcDbBlockBegin
  2
*Paper_Space
 70
     0
 10
0.0
 20
0.0
 30
0.0
  3
*Paper_Space
  1

  0
ENDBLK
  5
6D
330
6B
100
AcDbEntity
 67
     1
  8
0
100
AcDbBlockEnd
  0
BLOCK
  5
AB
330
AA
100
AcDbEntity
  8
0
100
AcDbBlockBegin
  2
-000-え
 70
     0
 10
0.0
 20
0.0
 30
0.0
  3
-000-え
  1

  0
LINE
  5
AD
330
AA
100
AcDbEntity
  8
_1-f_補助線
  6
Continuous
 62
     9
100
AcDbLine
 10
-0.3246625692108011
 20
2.411634502700778
 30
0.0
 11
-0.3246625692108011
 21
-2.372474841106409
 31
0.0
  0
LINE
  5
AE
330
AA
100
AcDbEntity
  8
_1-f_補助線
  6
Continuous
 62
     9
100
AcDbLine
 10
1.675337435334739
 20
-0.0208060225968011
 30
0.0
 11
-2.769265682062012
 21
-0.0208060225968011
 31
0.0
  0
TEXT
  5
B0
330
AA
100
AcDbEntity
  8
_1-e_文字
 62
     3
100
AcDbText
 10
1.196289234512079
 20
-1.22796778560361
 30
0.0
 40
3.0
  1
え
 50
90.0
 41
0.8333333333333332
100
AcDbText
  0
CIRCLE
  5
B1
330
AA
100
AcDbEntity
  8
_1-e_文字
  6
Continuous
 62
     4
100
AcDbCircle
 10
-0.3246625419375561
 20
-0.0208060225968011
 30
0.0
 40
2.000000004545554
  0
ENDBLK
  5
B2
330
AA
100
AcDbEntity
  8
0
100
AcDbBlockEnd
  0
BLOCK
  5
B4
330
B3
100
AcDbEntity
  8
0
100
AcDbBlockBegin
  2
-001-お
 70
     0
 10
0.0
 20
0.0
 30
0.0
  3
-001-お
  1

  0
LINE
  5
B5
330
B3
100
AcDbEntity
  8
_1-f_補助線
  6
Continuous
 62
     9
100
AcDbLine
 10
-0.324662573756342
 20
11.96163450270079
 30
0.0
 11
-0.324662573756342
 21
7.177525158893601
 31
0.0
  0
LINE
  5
B6
330
B3
100
AcDbEntity
  8
_1-f_補助線
  6
Continuous
 62
     9
100
AcDbLine
 10
1.675337430789198
 20
9.52919397740321
 30
0.0
 11
-2.769265686607553
 21
9.52919397740321
 31
0.0
  0
TEXT
  5
B7
330
B3
100
AcDbEntity
  8
_1-e_文字
 62
     3
100
AcDbText
 10
1.19628923905762
 20
8.322032214396401
 30
0.0
 40
3.0
  1
お
 50
90.0
 41
0.8333333333333332
100
AcDbText
  0
CIRCLE
  5
B8
330
B3
100
AcDbEntity
  8
_1-e_文字
  6
Continuous
 62
     4
100
AcDbCircle
 10
-0.3246625373920153
 20
9.52919397740321
 30
0.0
 40
2.000000004545554
  0
ENDBLK
  5
B9
330
B3
100
AcDbEntity
  8
0
100
AcDbBlockEnd
  0
BLOCK
  5
BB
330
BA
100
AcDbEntity
  8
0
100
AcDbBlockBegin
  2
-002-か
 70
     0
 10
0.0
 20
0.0
 30
0.0
  3
-002-か
  1

  0
LINE
  5
BC
330
BA
100
AcDbEntity
  8
_1-f_補助線
  6
Continuous
 62
     9
100
AcDbLine
 10
-0.3246625783018828
 20
2.411634502700778
 30
0.0
 11
-0.3246625783018828
 21
-2.372474841106409
 31
0.0
  0
LINE
  5
BD
330
BA
100
AcDbEntity
  8
_1-f_補助線
  6
Continuous
 62
     9
100
AcDbLine
 10
1.675337426243658
 20
-0.0208060225968011
 30
0.0
 11
-2.769265691153094
 21
-0.0208060225968011
 31
0.0
  0
TEXT
  5
BE
330
BA
100
AcDbEntity
  8
_1-e_文字
 62
     3
100
AcDbText
 10
1.19628924360316
 20
-1.22796778560361
 30
0.0
 40
3.0
  1
か
 50
90.0
 41
0.8333333333333332
100
AcDbText
  0
CIRCLE
  5
BF
330
BA
100
AcDbEntity
  8
_1-e_文字
  6
Continuous
 62
     4
100
AcDbCircle
 10
-0.3246625328464745
 20
-0.0208060225968011
 30
0.0
 40
2.000000004545554
  0
ENDBLK
  5
C0
330
BA
100
AcDbEntity
  8
0
100
AcDbBlockEnd
  0
BLOCK
  5
C2
330
C1
100
AcDbEntity
  8
0
100
AcDbBlockBegin
  2
-003-き
 70
     0
 10
0.0
 20
0.0
 30
0.0
  3
-003-き
  1

  0
LINE
  5
C3
330
C1
100
AcDbEntity
  8
_1-f_補助線
  6
Continuous
 62
     9
100
AcDbLine
 10
-0.3246625828474236
 20
11.96163450270079
 30
0.0
 11
-0.3246625828474236
 21
7.177525158893601
 31
0.0
  0
LINE
  5
C4
330
C1
100
AcDbEntity
  8
_1-f_補助線
  6
Continuous
 62
     9
100
AcDbLine
 10
1.675337421698117
 20
9.52919397740321
 30
0.0
 11
-2.769265695698635
 21
9.52919397740321
 31
0.0
  0
TEXT
  5
C5
330
C1
100
AcDbEntity
  8
_1-e_文字
 62
     3
100
AcDbText
 10
1.196289248148701
 20
8.322032214396401
 30
0.0
 40
3.0
  1
き
 50
90.0
 41
0.8333333333333332
100
AcDbText
  0
CIRCLE
  5
C6
330
C1
100
AcDbEntity
  8
_1-e_文字
  6
Continuous
 62
     4
100
AcDbCircle
 10
-0.3246625283009336
 20
9.52919397740321
 30
0.0
 40
2.000000004545554
  0
ENDBLK
  5
C7
330
C1
100
AcDbEntity
  8
0
100
AcDbBlockEnd
  0
BLOCK
  5
C9
330
C8
100
AcDbEntity
  8
0
100
AcDbBlockBegin
  2
-004-く
 70
     0
 10
0.0
 20
0.0
 30
0.0
  3
-004-く
  1

  0
LINE
  5
CA
330
C8
100
AcDbEntity
  8
_1-f_補助線
  6
Continuous
 62
     9
100
AcDbLine
 10
-0.3246625873929645
 20
21.5116345027008
 30
0.0
 11
-0.3246625873929645
 21
16.72752515889361
 31
0.0
  0
LINE
  5
CB
330
C8
100
AcDbEntity
  8
_1-f_補助線
  6
Continuous
 62
     9
100
AcDbLine
 10
1.675337417152576
 20
19.07919397740322
 30
0.0
 11
-2.769265700244176
 21
19.07919397740322
 31
0.0
  0
TEXT
  5
CC
330
C8
100
AcDbEntity
  8
_1-e_文字
 62
     3
100
AcDbText
 10
1.196289252694242
 20
17.87203221439641
 30
0.0
 40
3.0
  1
く
 50
90.0
 41
0.8333333333333332
100
AcDbText
  0
CIRCLE
  5
CD
330
C8
100
AcDbEntity
  8
_1-e_文字
  6
Continuous
 62
     4
100
AcDbCircle
 10
-0.3246625237553928
 20
19.07919397740322
 30
0.0
 40
2.000000004545554
  0
ENDBLK
  5
CE
330
C8
100
AcDbEntity
  8
0
100
AcDbBlockEnd
  0
BLOCK
  5
D0
330
CF
100
AcDbEntity
  8
0
100
AcDbBlockBegin
  2
-005-け
 70
     0
 10
0.0
 20
0.0
 30
0.0
  3
-005-け
  1

  0
LINE
  5
D1
330
CF
100
AcDbEntity
  8
_1-f_補助線
  6
Continuous
 62
     9
100
AcDbLine
 10
-0.3246625919385053
 20
31.06163450270081
 30
0.0
 11
-0.3246625919385053
 21
26.27752515889362
 31
0.0
  0
LINE
  5
D2
330
CF
100
AcDbEntity
  8
_1-f_補助線
  6
Continuous
 62
     9
100
AcDbLine
 10
1.675337412607035
 20
28.62919397740324
 30
0.0
 11
-2.769265704789716
 21
28.62919397740324
 31
0.0
  0
TEXT
  5
D3
330
CF
100
AcDbEntity
  8
_1-e_文字
 62
     3
100
AcDbText
 10
1.196289257239783
 20
27.42203221439643
 30
0.0
 40
3.0
  1
け
 50
90.0
 41
0.8333333333333332
100
AcDbText
  0
CIRCLE
  5
D4
330
CF
100
AcDbEntity
  8
_1-e_文字
  6
Continuous
 62
     4
100
AcDbCircle
 10
-0.324662519209852
 20
28.62919397740324
 30
0.0
 40
2.000000004545554
  0
ENDBLK
  5
D5
330
CF
100
AcDbEntity
  8
0
100
AcDbBlockEnd
  0
BLOCK
  5
D7
330
D6
100
AcDbEntity
  8
0
100
AcDbBlockBegin
  2
-006-あｓ
 70
     0
 10
0.0
 20
0.0
 30
0.0
  3
-006-あｓ
  1

  0
TEXT
  5
D8
330
D6
100
AcDbEntity
  8
_1-f_補助線
 62
     3
100
AcDbText
 10
0.0
 20
-1.25
 30
0.0
 40
3.0
  1
あ
 50
90.0
 41
0.8333333333333332
100
AcDbText
  0
CIRCLE
  5
D9
330
D6
100
AcDbEntity
  8
_1-f_補助線
  6
Continuous
 62
     4
100
AcDbCircle
 10
-1.520951776449635
 20
-0.042838236993191
 30
0.0
 40
2.000000004545554
  0
ENDBLK
  5
DA
330
D6
100
AcDbEntity
  8
0
100
AcDbBlockEnd
  0
BLOCK
  5
DC
330
DB
100
AcDbEntity
  8
0
100
AcDbBlockBegin
  2
-007-２３２１
 70
     0
 10
0.0
 20
0.0
 30
0.0
  3
-007-２３２１
  1

  0
TEXT
  5
DD
330
DB
100
AcDbEntity
  8
_1-f_補助線
 62
     3
100
AcDbText
 10
0.0
 20
-1.25
 30
0.0
 40
3.0
  1
い
 50
90.0
 41
0.8333333333333332
100
AcDbText
  0
CIRCLE
  5
DE
330
DB
100
AcDbEntity
  8
_1-f_補助線
  6
Continuous
 62
     4
100
AcDbCircle
 10
-1.520951776449635
 20
-0.042838236993191
 30
0.0
 40
2.000000004545554
  0
ENDBLK
  5
DF
330
DB
100
AcDbEntity
  8
0
100
AcDbBlockEnd
  0
BLOCK
  5
E1
330
E0
100
AcDbEntity
  8
0
100
AcDbBlockBegin
  2
-008-うｙ
 70
     0
 10
0.0
 20
0.0
 30
0.0
  3
-008-うｙ
  1

  0
LINE
  5
E2
330
E0
100
AcDbEntity
  8
ADD_LINE
  6
DOT
 62
     9
100
AcDbLine
 10
0.0
 20
50.07051593231351
 30
0.0
 11
0.0
 21
-50.07051593231351
 31
0.0
  0
TEXT
  5
E3
330
E0
100
AcDbEntity
  8
_1-f_補助線
 62
     3
100
AcDbText
 10
-0.479048214459283
 20
-28.57767769532029
 30
0.0
 40
3.0
  1
う
 50
90.0
 41
0.8333333333333332
100
AcDbText
  0
CIRCLE
  5
E4
330
E0
100
AcDbEntity
  8
_1-f_補助線
  6
Continuous
 62
     4
100
AcDbCircle
 10
-1.999999990908918
 20
-27.37051593231348
 30
0.0
 40
2.000000004545554
  0
ENDBLK
  5
E5
330
E0
100
AcDbEntity
  8
0
100
AcDbBlockEnd
  0
ENDSEC
  0
SECTION
  2
ENTITIES
  0
LINE
  5
E6
330
6F
100
AcDbEntity
  8
ADD_LINE
  6
DOT
 62
     9
100
AcDbLine
 10
264.7024716291005
 20
201.2102943643073
 30
0.0
 11
49.32949880893762
 21
201.2102943643073
 31
0.0
  0
LINE
  5
E7
330
6F
100
AcDbEntity
  8
_2-2_舗装
  6
Continuous
 62
    18
100
AcDbLine
 10
204.1204078998465
 20
207.2102943643073
 30
0.0
 11
206.5204078998466
 21
207.2102943643073
 31
0.0
  0
LINE
  5
E8
330
6F
100
AcDbEntity
  8
_2-2_舗装
  6
Continuous
 62
    18
100
AcDbLine
 10
206.5204078998466
 20
207.2102943643073
 30
0.0
 11
206.5204078998466
 21
202.4102943643073
 31
0.0
  0
LINE
  5
E9
330
6F
100
AcDbEntity
  8
_2-2_舗装
  6
Continuous
 62
    18
100
AcDbLine
 10
206.5204078998466
 20
202.4102943643073
 30
0.0
 11
204.1204078998465
 21
202.4102943643073
 31
0.0
  0
LINE
  5
EA
330
6F
100
AcDbEntity
  8
_2-2_舗装
  6
Continuous
 62
    18
100
AcDbLine
 10
204.1204078998465
 20
202.4102943643073
 30
0.0
 11
204.1204078998465
 21
207.2102943643073
 31
0.0
  0
LINE
  5
EB
330
6F
100
AcDbEntity
  8
_2-2_舗装
  6
Continuous
 62
    18
100
AcDbLine
 10
185.0204078998466
 20
207.2102943643073
 30
0.0
 11
187.4204078998467
 21
207.2102943643073
 31
0.0
  0
LINE
  5
EC
330
6F
100
AcDbEntity
  8
_2-2_舗装
  6
Continuous
 62
    18
100
AcDbLine
 10
187.4204078998467
 20
207.2102943643073
 30
0.0
 11
187.4204078998467
 21
202.4102943643073
 31
0.0
  0
LINE
  5
ED
330
6F
100
AcDbEntity
  8
_2-2_舗装
  6
Continuous
 62
    18
100
AcDbLine
 10
187.4204078998467
 20
202.4102943643073
 30
0.0
 11
185.0204078998466
 21
202.4102943643073
 31
0.0
  0
LINE
  5
EE
330
6F
100
AcDbEntity
  8
_2-2_舗装
  6
Continuous
 62
    18
100
AcDbLine
 10
185.0204078998466
 20
202.4102943643073
 30
0.0
 11
185.0204078998466
 21
207.2102943643073
 31
0.0
  0
LINE
  5
EF
330
6F
100
AcDbEntity
  8
ADD_LINE
  6
DOT
 62
     9
100
AcDbLine
 10
209.3380688206182
 20
211.2102943643073
 30
0.0
 11
196.4873603378461
 21
211.2102943643073
 31
0.0
  0
LINE
  5
F0
330
6F
100
AcDbEntity
  8
ADD_LINE
  6
DOT
 62
     9
100
AcDbLine
 10
207.1204078998465
 20
207.2102943643073
 30
0.0
 11
207.1204078998465
 21
207.3209177315474
 31
0.0
  0
LINE
  5
F1
330
6F
100
AcDbEntity
  8
ADD_LINE
  6
DOT
 62
     9
100
AcDbLine
 10
203.5204078998466
 20
207.2102943643073
 30
0.0
 11
203.5204078998466
 21
207.3209177315474
 31
0.0
  0
LINE
  5
F2
330
6F
100
AcDbEntity
  8
_2-2_舗装
  6
Continuous
 62
    18
100
AcDbLine
 10
89.37040789984655
 20
207.2102943643073
 30
0.0
 11
92.07040789984658
 21
207.2102943643073
 31
0.0
  0
LINE
  5
F3
330
6F
100
AcDbEntity
  8
_2-2_舗装
  6
Continuous
 62
    18
100
AcDbLine
 10
92.07040789984658
 20
207.2102943643073
 30
0.0
 11
92.07040789984658
 21
201.2102943643073
 31
0.0
  0
LINE
  5
F4
330
6F
100
AcDbEntity
  8
_2-2_舗装
  6
Continuous
 62
    18
100
AcDbLine
 10
92.07040789984658
 20
201.2102943643073
 30
0.0
 11
89.37040789984655
 21
201.2102943643073
 31
0.0
  0
LINE
  5
F5
330
6F
100
AcDbEntity
  8
_2-2_舗装
  6
Continuous
 62
    18
100
AcDbLine
 10
89.37040789984655
 20
201.2102943643073
 30
0.0
 11
89.37040789984655
 21
207.2102943643073
 31
0.0
  0
LINE
  5
F6
330
6F
100
AcDbEntity
  8
_2-2_舗装
  6
Continuous
 62
    18
100
AcDbLine
 10
165.7704078998467
 20
207.2102943643073
 30
0.0
 11
168.4704078998468
 21
207.2102943643073
 31
0.0
  0
LINE
  5
F7
330
6F
100
AcDbEntity
  8
_2-2_舗装
  6
Continuous
 62
    18
100
AcDbLine
 10
168.4704078998468
 20
207.2102943643073
 30
0.0
 11
168.4704078998468
 21
201.2102943643073
 31
0.0
  0
LINE
  5
F8
330
6F
100
AcDbEntity
  8
_2-2_舗装
  6
Continuous
 62
    18
100
AcDbLine
 10
168.4704078998468
 20
201.2102943643073
 30
0.0
 11
165.7704078998467
 21
201.2102943643073
 31
0.0
  0
LINE
  5
F9
330
6F
100
AcDbEntity
  8
_2-2_舗装
  6
Continuous
 62
    18
100
AcDbLine
 10
70.42040789984669
 20
201.2102943643073
 30
0.0
 11
72.82040789984666
 21
201.2102943643073
 31
0.0
  0
LINE
  5
FA
330
6F
100
AcDbEntity
  8
_2-2_舗装
  6
Continuous
 62
    18
100
AcDbLine
 10
72.82040789984666
 20
201.2102943643073
 30
0.0
 11
72.82040789984666
 21
204.2102943643073
 31
0.0
  0
LINE
  5
FB
330
6F
100
AcDbEntity
  8
_2-2_舗装
  6
Continuous
 62
    18
100
AcDbLine
 10
70.42040789984669
 20
201.2102943643073
 30
0.0
 11
70.42040789984669
 21
204.2102943643073
 31
0.0
  0
LINE
  5
FC
330
6F
100
AcDbEntity
  8
_2-2_舗装
  6
Continuous
 62
    18
100
AcDbLine
 10
72.82040789984666
 20
204.2102943643073
 30
0.0
 11
70.42040789984669
 21
204.2102943643073
 31
0.0
  0
LINE
  5
FD
330
6F
100
AcDbEntity
  8
ADD_LINE
  6
DOT
 62
     9
100
AcDbLine
 10
53.62040789984666
 20
119.4304830843073
 30
0.0
 11
53.62040789984666
 21
226.0721742179611
 31
0.0
  0
LINE
  5
FE
330
6F
100
AcDbEntity
  8
_2-2_舗装
  6
Continuous
 62
    18
100
AcDbLine
 10
165.7704078998467
 20
201.2102943643073
 30
0.0
 11
165.7704078998467
 21
207.2102943643073
 31
0.0
  0
LINE
  5
FF
330
6F
100
AcDbEntity
  8
_2-2_舗装
  6
Continuous
 62
    18
100
AcDbLine
 10
225.6204078998615
 20
207.2102943643073
 30
0.0
 11
225.6204078998615
 21
201.2102943643073
 31
0.0
  0
LINE
  5
100
330
6F
100
AcDbEntity
  8
_2-2_舗装
  6
Continuous
 62
    18
100
AcDbLine
 10
225.6204078998615
 20
201.2102943643073
 30
0.0
 11
223.2204078998313
 21
201.2102943643073
 31
0.0
  0
LINE
  5
101
330
6F
100
AcDbEntity
  8
_2-2_舗装
  6
Continuous
 62
    18
100
AcDbLine
 10
91.92040789984655
 20
163.7102943643073
 30
0.0
 11
89.52040789984659
 21
163.7102943643073
 31
0.0
  0
LINE
  5
102
330
6F
100
AcDbEntity
  8
_2-2_舗装
  6
Continuous
 62
    18
100
AcDbLine
 10
89.52040789984659
 20
160.7102943643073
 30
0.0
 11
91.92040789984655
 21
160.7102943643073
 31
0.0
  0
LINE
  5
103
330
6F
100
AcDbEntity
  8
_2-2_舗装
  6
Continuous
 62
    18
100
AcDbLine
 10
168.3204078998468
 20
163.7102943643073
 30
0.0
 11
165.9204078998467
 21
163.7102943643073
 31
0.0
  0
LINE
  5
104
330
6F
100
AcDbEntity
  8
_2-2_舗装
  6
Continuous
 62
    18
100
AcDbLine
 10
165.9204078998467
 20
163.7102943643073
 30
0.0
 11
165.9204078998467
 21
160.7102943643073
 31
0.0
  0
LINE
  5
105
330
6F
100
AcDbEntity
  8
_2-2_舗装
  6
Continuous
 62
    18
100
AcDbLine
 10
165.9204078998467
 20
160.7102943643073
 30
0.0
 11
168.3204078998468
 21
160.7102943643073
 31
0.0
  0
LINE
  5
106
330
6F
100
AcDbEntity
  8
_2-2_舗装
  6
Continuous
 62
    18
100
AcDbLine
 10
168.3204078998468
 20
160.7102943643073
 30
0.0
 11
168.3204078998468
 21
163.7102943643073
 31
0.0
  0
LINE
  5
107
330
6F
100
AcDbEntity
  8
_2-2_舗装
  6
Continuous
 62
    18
100
AcDbLine
 10
223.2204078998464
 20
163.7102943643073
 30
0.0
 11
225.6204078998464
 21
163.7102943643073
 31
0.0
  0
LINE
  5
108
330
6F
100
AcDbEntity
  8
_2-2_舗装
  6
Continuous
 62
    18
100
AcDbLine
 10
225.6204078998464
 20
163.7102943643073
 30
0.0
 11
225.6204078998464
 21
161.3102943643073
 31
0.0
  0
LINE
  5
109
330
6F
100
AcDbEntity
  8
_2-2_舗装
  6
Continuous
 62
    18
100
AcDbLine
 10
225.6204078998464
 20
161.3102943643073
 30
0.0
 11
223.2204078998464
 21
161.3102943643073
 31
0.0
  0
LINE
  5
10A
330
6F
100
AcDbEntity
  8
_2-2_舗装
  6
Continuous
 62
    18
100
AcDbLine
 10
223.2204078998464
 20
161.3102943643073
 30
0.0
 11
223.2204078998464
 21
163.7102943643073
 31
0.0
  0
LINE
  5
10B
330
6F
100
AcDbEntity
  8
ADD_LINE
  6
DOT
 62
     9
100
AcDbLine
 10
264.7024716291005
 20
156.8102943643073
 30
0.0
 11
49.32949880893762
 21
156.8102943643073
 31
0.0
  0
LINE
  5
10C
330
6F
100
AcDbEntity
  8
_2-2_舗装
  6
Continuous
 62
    18
100
AcDbLine
 10
70.42040789984669
 20
156.8102943643073
 30
0.0
 11
72.82040789984666
 21
156.8102943643073
 31
0.0
  0
LINE
  5
10D
330
6F
100
AcDbEntity
  8
_2-2_舗装
  6
Continuous
 62
    18
100
AcDbLine
 10
72.82040789984666
 20
156.8102943643073
 30
0.0
 11
72.82040789984666
 21
154.4102943643073
 31
0.0
  0
LINE
  5
10E
330
6F
100
AcDbEntity
  8
_2-2_舗装
  6
Continuous
 62
    18
100
AcDbLine
 10
72.82040789984666
 20
154.4102943643073
 30
0.0
 11
70.42040789984669
 21
154.4102943643073
 31
0.0
  0
LINE
  5
10F
330
6F
100
AcDbEntity
  8
_2-2_舗装
  6
Continuous
 62
    18
100
AcDbLine
 10
70.42040789984669
 20
154.4102943643073
 30
0.0
 11
70.42040789984669
 21
156.8102943643073
 31
0.0
  0
LINE
  5
110
330
6F
100
AcDbEntity
  8
_2-2_舗装
  6
Continuous
 62
    18
100
AcDbLine
 10
70.42040789984669
 20
163.7102943643073
 30
0.0
 11
72.82040789984666
 21
163.7102943643073
 31
0.0
  0
LINE
  5
111
330
6F
100
AcDbEntity
  8
_2-2_舗装
  6
Continuous
 62
    18
100
AcDbLine
 10
72.82040789984666
 20
163.7102943643073
 30
0.0
 11
72.82040789984666
 21
160.7102943643073
 31
0.0
  0
LINE
  5
112
330
6F
100
AcDbEntity
  8
_2-2_舗装
  6
Continuous
 62
    18
100
AcDbLine
 10
72.82040789984666
 20
160.7102943643073
 30
0.0
 11
70.42040789984669
 21
160.7102943643073
 31
0.0
  0
LINE
  5
113
330
6F
100
AcDbEntity
  8
_2-2_舗装
  6
Continuous
 62
    18
100
AcDbLine
 10
70.42040789984669
 20
160.7102943643073
 30
0.0
 11
70.42040789984669
 21
163.7102943643073
 31
0.0
  0
LINE
  5
114
330
6F
100
AcDbEntity
  8
_2-2_舗装
  6
Continuous
 62
    18
100
AcDbLine
 10
223.2204078998464
 20
156.8102943643073
 30
0.0
 11
225.6204078998464
 21
156.8102943643073
 31
0.0
  0
LINE
  5
115
330
6F
100
AcDbEntity
  8
_2-2_舗装
  6
Continuous
 62
    18
100
AcDbLine
 10
225.6204078998464
 20
156.8102943643073
 30
0.0
 11
225.6204078998464
 21
154.4102943643073
 31
0.0
  0
LINE
  5
116
330
6F
100
AcDbEntity
  8
_2-2_舗装
  6
Continuous
 62
    18
100
AcDbLine
 10
225.6204078998464
 20
154.4102943643073
 30
0.0
 11
223.2204078998464
 21
154.4102943643073
 31
0.0
  0
LINE
  5
117
330
6F
100
AcDbEntity
  8
_2-2_舗装
  6
Continuous
 62
    18
100
AcDbLine
 10
223.2204078998464
 20
154.4102943643073
 30
0.0
 11
223.2204078998464
 21
156.8102943643073
 31
0.0
  0
LINE
  5
118
330
6F
100
AcDbEntity
  8
_2-2_舗装
  6
Continuous
 62
    18
100
AcDbLine
 10
69.82040789984665
 20
154.4102943643073
 30
0.0
 11
73.42040789984669
 21
154.4102943643073
 31
0.0
  0
LINE
  5
119
330
6F
100
AcDbEntity
  8
_2-2_舗装
  6
Continuous
 62
    18
100
AcDbLine
 10
73.42040789984669
 20
154.4102943643073
 30
0.0
 11
73.42040789984669
 21
150.8102943643073
 31
0.0
  0
LINE
  5
11A
330
6F
100
AcDbEntity
  8
_2-2_舗装
  6
Continuous
 62
    18
100
AcDbLine
 10
73.42040789984669
 20
150.8102943643073
 30
0.0
 11
69.82040789984665
 21
150.8102943643073
 31
0.0
  0
LINE
  5
11B
330
6F
100
AcDbEntity
  8
_2-2_舗装
  6
Continuous
 62
    18
100
AcDbLine
 10
69.82040789984665
 20
150.8102943643073
 30
0.0
 11
69.82040789984665
 21
154.4102943643073
 31
0.0
  0
LINE
  5
11C
330
6F
100
AcDbEntity
  8
_2-2_舗装
  6
Continuous
 62
    18
100
AcDbLine
 10
222.6204078998464
 20
154.4102943643073
 30
0.0
 11
226.2204078998464
 21
154.4102943643073
 31
0.0
  0
LINE
  5
11D
330
6F
100
AcDbEntity
  8
_2-2_舗装
  6
Continuous
 62
    18
100
AcDbLine
 10
226.2204078998464
 20
154.4102943643073
 30
0.0
 11
226.2204078998464
 21
150.8102943643073
 31
0.0
  0
LINE
  5
11E
330
6F
100
AcDbEntity
  8
_2-2_舗装
  6
Continuous
 62
    18
100
AcDbLine
 10
226.2204078998464
 20
150.8102943643073
 30
0.0
 11
222.6204078998464
 21
150.8102943643073
 31
0.0
  0
LINE
  5
11F
330
6F
100
AcDbEntity
  8
_2-2_舗装
  6
Continuous
 62
    18
100
AcDbLine
 10
222.6204078998464
 20
150.8102943643073
 30
0.0
 11
222.6204078998464
 21
154.4102943643073
 31
0.0
  0
LINE
  5
120
330
6F
100
AcDbEntity
  8
ADD_LINE
  6
DOT
 62
     9
100
AcDbLine
 10
264.7024716291005
 20
154.4102943643073
 30
0.0
 11
49.32949880893762
 21
154.4102943643073
 31
0.0
  0
LINE
  5
121
330
6F
100
AcDbEntity
  8
_2-2_舗装
  6
Continuous
 62
    18
100
AcDbLine
 10
89.52040789984659
 20
163.7102943643073
 30
0.0
 11
89.52040789984659
 21
160.7102943643073
 31
0.0
  0
LINE
  5
122
330
6F
100
AcDbEntity
  8
_2-2_舗装
  6
Continuous
 62
    18
100
AcDbLine
 10
91.92040789984655
 20
160.7102943643073
 30
0.0
 11
91.92040789984655
 21
163.7102943643073
 31
0.0
  0
LINE
  5
123
330
6F
100
AcDbEntity
  8
_2-2_舗装
  6
Continuous
 62
    18
100
AcDbLine
 10
108.7704078998465
 20
163.7102943643073
 30
0.0
 11
110.8704078998464
 21
163.7102943643073
 31
0.0
  0
LINE
  5
124
330
6F
100
AcDbEntity
  8
_2-2_舗装
  6
Continuous
 62
    18
100
AcDbLine
 10
110.8704078998464
 20
163.7102943643073
 30
0.0
 11
110.8704078998464
 21
161.6102943643072
 31
0.0
  0
LINE
  5
125
330
6F
100
AcDbEntity
  8
_2-2_舗装
  6
Continuous
 62
    18
100
AcDbLine
 10
110.8704078998464
 20
161.6102943643072
 30
0.0
 11
108.7704078998465
 21
161.6102943643072
 31
0.0
  0
LINE
  5
126
330
6F
100
AcDbEntity
  8
_2-2_舗装
  6
Continuous
 62
    18
100
AcDbLine
 10
108.7704078998465
 20
161.6102943643072
 30
0.0
 11
108.7704078998465
 21
163.7102943643073
 31
0.0
  0
LINE
  5
127
330
6F
100
AcDbEntity
  8
_2-2_舗装
  6
Continuous
 62
    18
100
AcDbLine
 10
127.8704078998464
 20
163.7102943643073
 30
0.0
 11
129.9704078998463
 21
163.7102943643073
 31
0.0
  0
LINE
  5
128
330
6F
100
AcDbEntity
  8
_2-2_舗装
  6
Continuous
 62
    18
100
AcDbLine
 10
129.9704078998463
 20
163.7102943643073
 30
0.0
 11
129.9704078998463
 21
161.6102943643072
 31
0.0
  0
LINE
  5
129
330
6F
100
AcDbEntity
  8
_2-2_舗装
  6
Continuous
 62
    18
100
AcDbLine
 10
129.9704078998463
 20
161.6102943643072
 30
0.0
 11
127.8704078998464
 21
161.6102943643072
 31
0.0
  0
LINE
  5
12A
330
6F
100
AcDbEntity
  8
_2-2_舗装
  6
Continuous
 62
    18
100
AcDbLine
 10
127.8704078998464
 20
161.6102943643072
 30
0.0
 11
127.8704078998464
 21
163.7102943643073
 31
0.0
  0
LINE
  5
12B
330
6F
100
AcDbEntity
  8
_2-2_舗装
  6
Continuous
 62
    18
100
AcDbLine
 10
146.9704078998467
 20
163.7102943643073
 30
0.0
 11
149.0704078998466
 21
163.7102943643073
 31
0.0
  0
LINE
  5
12C
330
6F
100
AcDbEntity
  8
_2-2_舗装
  6
Continuous
 62
    18
100
AcDbLine
 10
149.0704078998466
 20
163.7102943643073
 30
0.0
 11
149.0704078998466
 21
161.6102943643072
 31
0.0
  0
LINE
  5
12D
330
6F
100
AcDbEntity
  8
_2-2_舗装
  6
Continuous
 62
    18
100
AcDbLine
 10
149.0704078998466
 20
161.6102943643072
 30
0.0
 11
146.9704078998467
 21
161.6102943643072
 31
0.0
  0
LINE
  5
12E
330
6F
100
AcDbEntity
  8
_2-2_舗装
  6
Continuous
 62
    18
100
AcDbLine
 10
146.9704078998467
 20
161.6102943643072
 30
0.0
 11
146.9704078998467
 21
163.7102943643073
 31
0.0
  0
LINE
  5
12F
330
6F
100
AcDbEntity
  8
ADD_LINE
  6
DOT
 62
     9
100
AcDbLine
 10
89.52040789984659
 20
163.7102943643073
 30
0.0
 11
49.32949880893762
 21
163.7102943643073
 31
0.0
  0
LINE
  5
130
330
6F
100
AcDbEntity
  8
ADD_LINE
  6
DOT
 62
     9
100
AcDbLine
 10
250.7556715384449
 20
207.2102943643073
 30
0.0
 11
49.32949880893762
 21
207.2102943643073
 31
0.0
  0
LINE
  5
131
330
6F
100
AcDbEntity
  8
ADD_LINE
  6
DOT
 62
     9
100
AcDbLine
 10
78.72040789984658
 20
233.416994490551
 30
0.0
 11
78.72040789984658
 21
228.5976387057457
 31
0.0
  0
LINE
  5
132
330
6F
100
AcDbEntity
  8
ADD_LINE
  6
DOT
 62
     9
100
AcDbLine
 10
217.3204078998467
 20
233.416994490551
 30
0.0
 11
217.3204078998467
 21
228.5976387057457
 31
0.0
  0
LINE
  5
133
330
6F
100
AcDbEntity
  8
_2-2_舗装
  6
Continuous
 62
    18
100
AcDbLine
 10
89.37040789984655
 20
237.2102943643073
 30
0.0
 11
92.07040789984658
 21
237.2102943643073
 31
0.0
  0
LINE
  5
134
330
6F
100
AcDbEntity
  8
_2-2_舗装
  6
Continuous
 62
    18
100
AcDbLine
 10
92.07040789984658
 20
237.2102943643073
 30
0.0
 11
92.07040789984658
 21
234.5102943643074
 31
0.0
  0
LINE
  5
135
330
6F
100
AcDbEntity
  8
_2-2_舗装
  6
Continuous
 62
    18
100
AcDbLine
 10
92.07040789984658
 20
234.5102943643074
 30
0.0
 11
89.37040789984655
 21
234.5102943643074
 31
0.0
  0
LINE
  5
136
330
6F
100
AcDbEntity
  8
_2-2_舗装
  6
Continuous
 62
    18
100
AcDbLine
 10
89.37040789984655
 20
234.5102943643074
 30
0.0
 11
89.37040789984655
 21
237.2102943643073
 31
0.0
  0
LINE
  5
137
330
6F
100
AcDbEntity
  8
_2-2_舗装
  6
Continuous
 62
    18
100
AcDbLine
 10
203.9704078998466
 20
237.2102943643073
 30
0.0
 11
206.6704078998466
 21
237.2102943643073
 31
0.0
  0
LINE
  5
138
330
6F
100
AcDbEntity
  8
_2-2_舗装
  6
Continuous
 62
    18
100
AcDbLine
 10
206.6704078998466
 20
237.2102943643073
 30
0.0
 11
206.6704078998466
 21
234.5102943643074
 31
0.0
  0
LINE
  5
139
330
6F
100
AcDbEntity
  8
_2-2_舗装
  6
Continuous
 62
    18
100
AcDbLine
 10
206.6704078998466
 20
234.5102943643074
 30
0.0
 11
203.9704078998466
 21
234.5102943643074
 31
0.0
  0
LINE
  5
13A
330
6F
100
AcDbEntity
  8
_2-2_舗装
  6
Continuous
 62
    18
100
AcDbLine
 10
203.9704078998466
 20
234.5102943643074
 30
0.0
 11
203.9704078998466
 21
237.2102943643073
 31
0.0
  0
LINE
  5
13B
330
6F
100
AcDbEntity
  8
_2-2_舗装
  6
Continuous
 62
    18
100
AcDbLine
 10
146.8204078998466
 20
265.8602943679602
 30
0.0
 11
149.2204078998467
 21
265.8602943679602
 31
0.0
  0
LINE
  5
13C
330
6F
100
AcDbEntity
  8
_2-2_舗装
  6
Continuous
 62
    18
100
AcDbLine
 10
149.2204078998467
 20
265.8602943679602
 30
0.0
 11
149.2204078998467
 21
262.8602943679602
 31
0.0
  0
LINE
  5
13D
330
6F
100
AcDbEntity
  8
_2-2_舗装
  6
Continuous
 62
    18
100
AcDbLine
 10
149.2204078998467
 20
262.8602943679602
 30
0.0
 11
146.8204078998466
 21
262.8602943679602
 31
0.0
  0
LINE
  5
13E
330
6F
100
AcDbEntity
  8
_2-2_舗装
  6
Continuous
 62
    18
100
AcDbLine
 10
146.8204078998466
 20
262.8602943679602
 30
0.0
 11
146.8204078998466
 21
265.8602943679602
 31
0.0
  0
LINE
  5
13F
330
6F
100
AcDbEntity
  8
_2-2_舗装
  6
Continuous
 62
    18
100
AcDbLine
 10
127.7204078998463
 20
256.3102943667425
 30
0.0
 11
130.1204078998464
 21
256.3102943667425
 31
0.0
  0
LINE
  5
140
330
6F
100
AcDbEntity
  8
_2-2_舗装
  6
Continuous
 62
    18
100
AcDbLine
 10
130.1204078998464
 20
256.3102943667425
 30
0.0
 11
130.1204078998464
 21
253.3102943667425
 31
0.0
  0
LINE
  5
141
330
6F
100
AcDbEntity
  8
_2-2_舗装
  6
Continuous
 62
    18
100
AcDbLine
 10
130.1204078998464
 20
253.3102943667425
 30
0.0
 11
127.7204078998463
 21
253.3102943667425
 31
0.0
  0
LINE
  5
142
330
6F
100
AcDbEntity
  8
_2-2_舗装
  6
Continuous
 62
    18
100
AcDbLine
 10
127.7204078998463
 20
253.3102943667425
 30
0.0
 11
127.7204078998463
 21
256.3102943667425
 31
0.0
  0
LINE
  5
143
330
6F
100
AcDbEntity
  8
_2-2_舗装
  6
Continuous
 62
    18
100
AcDbLine
 10
108.6204078998464
 20
246.7602943655248
 30
0.0
 11
111.0204078998465
 21
246.7602943655248
 31
0.0
  0
LINE
  5
144
330
6F
100
AcDbEntity
  8
_2-2_舗装
  6
Continuous
 62
    18
100
AcDbLine
 10
111.0204078998465
 20
246.7602943655248
 30
0.0
 11
111.0204078998465
 21
243.7602943655249
 31
0.0
  0
LINE
  5
145
330
6F
100
AcDbEntity
  8
_2-2_舗装
  6
Continuous
 62
    18
100
AcDbLine
 10
111.0204078998465
 20
243.7602943655249
 30
0.0
 11
108.6204078998464
 21
243.7602943655249
 31
0.0
  0
LINE
  5
146
330
6F
100
AcDbEntity
  8
_2-2_舗装
  6
Continuous
 62
    18
100
AcDbLine
 10
108.6204078998464
 20
243.7602943655249
 30
0.0
 11
108.6204078998464
 21
246.7602943655248
 31
0.0
  0
LINE
  5
147
330
6F
100
AcDbEntity
  8
_2-2_舗装
  6
Continuous
 62
    18
100
AcDbLine
 10
165.9204078998467
 20
256.3102943667425
 30
0.0
 11
168.3204078998468
 21
256.3102943667425
 31
0.0
  0
LINE
  5
148
330
6F
100
AcDbEntity
  8
_2-2_舗装
  6
Continuous
 62
    18
100
AcDbLine
 10
165.9204078998467
 20
253.3102943667425
 30
0.0
 11
165.9204078998467
 21
256.3102943667425
 31
0.0
  0
LINE
  5
149
330
6F
100
AcDbEntity
  8
_2-2_舗装
  6
Continuous
 62
    18
100
AcDbLine
 10
185.0204078998466
 20
246.7602943655249
 30
0.0
 11
187.4204078998467
 21
246.7602943655249
 31
0.0
  0
LINE
  5
14A
330
6F
100
AcDbEntity
  8
_2-2_舗装
  6
Continuous
 62
    18
100
AcDbLine
 10
187.4204078998467
 20
246.7602943655249
 30
0.0
 11
187.4204078998467
 21
243.7602943655249
 31
0.0
  0
LINE
  5
14B
330
6F
100
AcDbEntity
  8
_2-2_舗装
  6
Continuous
 62
    18
100
AcDbLine
 10
187.4204078998467
 20
243.7602943655249
 30
0.0
 11
185.0204078998466
 21
243.7602943655249
 31
0.0
  0
LINE
  5
14C
330
6F
100
AcDbEntity
  8
_2-2_舗装
  6
Continuous
 62
    18
100
AcDbLine
 10
185.0204078998466
 20
243.7602943655249
 30
0.0
 11
185.0204078998466
 21
246.7602943655249
 31
0.0
  0
LINE
  5
14D
330
6F
100
AcDbEntity
  8
_2-2_舗装
  6
Continuous
 62
    18
100
AcDbLine
 10
165.7704078998467
 20
237.2102943643073
 30
0.0
 11
168.4704078998468
 21
237.2102943643073
 31
0.0
  0
LINE
  5
14E
330
6F
100
AcDbEntity
  8
_2-2_舗装
  6
Continuous
 62
    18
100
AcDbLine
 10
168.4704078998468
 20
237.2102943643073
 30
0.0
 11
168.4704078998468
 21
232.4102943643073
 31
0.0
  0
LINE
  5
14F
330
6F
100
AcDbEntity
  8
_2-2_舗装
  6
Continuous
 62
    18
100
AcDbLine
 10
168.4704078998468
 20
232.4102943643073
 30
0.0
 11
165.7704078998467
 21
232.4102943643073
 31
0.0
  0
LINE
  5
150
330
6F
100
AcDbEntity
  8
_2-2_舗装
  6
Continuous
 62
    18
100
AcDbLine
 10
165.7704078998467
 20
232.4102943643073
 30
0.0
 11
165.7704078998467
 21
237.2102943643073
 31
0.0
  0
LINE
  5
151
330
6F
100
AcDbEntity
  8
ADD_LINE
  6
DOT
 62
     9
100
AcDbLine
 10
250.7556715384449
 20
212.2102943643073
 30
0.0
 11
49.32949880893762
 21
212.2102943643073
 31
0.0
  0
LINE
  5
152
330
6F
100
AcDbEntity
  8
_2-2_舗装
  6
Continuous
 62
    18
100
AcDbLine
 10
223.2204078998464
 20
212.2102943643073
 30
0.0
 11
225.6204078998464
 21
212.2102943643073
 31
0.0
  0
LINE
  5
153
330
6F
100
AcDbEntity
  8
_2-2_舗装
  6
Continuous
 62
    18
100
AcDbLine
 10
225.6204078998464
 20
212.2102943643073
 30
0.0
 11
225.6204078998464
 21
209.8102943643073
 31
0.0
  0
LINE
  5
154
330
6F
100
AcDbEntity
  8
_2-2_舗装
  6
Continuous
 62
    18
100
AcDbLine
 10
225.6204078998464
 20
209.8102943643073
 30
0.0
 11
223.2204078998464
 21
209.8102943643073
 31
0.0
  0
LINE
  5
155
330
6F
100
AcDbEntity
  8
_2-2_舗装
  6
Continuous
 62
    18
100
AcDbLine
 10
223.2204078998464
 20
209.8102943643073
 30
0.0
 11
223.2204078998464
 21
212.2102943643073
 31
0.0
  0
LINE
  5
156
330
6F
100
AcDbEntity
  8
_2-2_舗装
  6
Continuous
 62
    18
100
AcDbLine
 10
207.7204078998467
 20
218.4652943650757
 30
0.0
 11
207.7204078998467
 21
220.2652943650758
 31
0.0
  0
LINE
  5
157
330
6F
100
AcDbEntity
  8
_2-2_舗装
  6
Continuous
 62
    18
100
AcDbLine
 10
206.5204078998466
 20
218.4652943650757
 30
0.0
 11
207.7204078998467
 21
218.4652943650757
 31
0.0
  0
LINE
  5
158
330
6F
100
AcDbEntity
  8
_2-2_舗装
  6
Continuous
 62
    18
100
AcDbLine
 10
206.5204078998466
 20
220.2652943650758
 30
0.0
 11
206.5204078998466
 21
218.4652943650757
 31
0.0
  0
LINE
  5
159
330
6F
100
AcDbEntity
  8
_2-2_舗装
  6
Continuous
 62
    18
100
AcDbLine
 10
207.7204078998467
 20
220.2652943650758
 30
0.0
 11
206.5204078998466
 21
220.2652943650758
 31
0.0
  0
LINE
  5
15A
330
6F
100
AcDbEntity
  8
ADD_LINE
  6
DOT
 62
     9
100
AcDbLine
 10
86.70274697907506
 20
211.2102943643073
 30
0.0
 11
99.55345546184721
 21
211.2102943643073
 31
0.0
  0
LINE
  5
15B
330
6F
100
AcDbEntity
  8
_2-2_舗装
  6
Continuous
 62
    18
100
AcDbLine
 10
72.82040789984694
 20
212.2102943643073
 30
0.0
 11
70.42040789984683
 21
212.2102943643073
 31
0.0
  0
LINE
  5
15C
330
6F
100
AcDbEntity
  8
_2-2_舗装
  6
Continuous
 62
    18
100
AcDbLine
 10
70.42040789984683
 20
212.2102943643073
 30
0.0
 11
70.42040789984683
 21
209.8102943643073
 31
0.0
  0
LINE
  5
15D
330
6F
100
AcDbEntity
  8
_2-2_舗装
  6
Continuous
 62
    18
100
AcDbLine
 10
70.42040789984683
 20
209.8102943643073
 30
0.0
 11
72.82040789984694
 21
209.8102943643073
 31
0.0
  0
LINE
  5
15E
330
6F
100
AcDbEntity
  8
_2-2_舗装
  6
Continuous
 62
    18
100
AcDbLine
 10
72.82040789984694
 20
209.8102943643073
 30
0.0
 11
72.82040789984694
 21
212.2102943643073
 31
0.0
  0
LINE
  5
15F
330
6F
100
AcDbEntity
  8
_2-2_舗装
  6
Continuous
 62
    18
100
AcDbLine
 10
88.32040789984658
 20
218.4652943650757
 30
0.0
 11
88.32040789984658
 21
220.2652943650758
 31
0.0
  0
LINE
  5
160
330
6F
100
AcDbEntity
  8
_2-2_舗装
  6
Continuous
 62
    18
100
AcDbLine
 10
89.52040789984664
 20
218.4652943650757
 30
0.0
 11
88.32040789984658
 21
218.4652943650757
 31
0.0
  0
LINE
  5
161
330
6F
100
AcDbEntity
  8
_2-2_舗装
  6
Continuous
 62
    18
100
AcDbLine
 10
89.52040789984664
 20
220.2652943650758
 30
0.0
 11
89.52040789984664
 21
218.4652943650757
 31
0.0
  0
LINE
  5
162
330
6F
100
AcDbEntity
  8
_2-2_舗装
  6
Continuous
 62
    18
100
AcDbLine
 10
88.32040789984658
 20
220.2652943650758
 30
0.0
 11
89.52040789984664
 21
220.2652943650758
 31
0.0
  0
LINE
  5
163
330
6F
100
AcDbEntity
  8
ADD_LINE
  6
DOT
 62
     9
100
AcDbLine
 10
217.3204078998466
 20
228.4542017901645
 30
0.0
 11
217.3204078998466
 21
245.1374884509117
 31
0.0
  0
LINE
  5
164
330
6F
100
AcDbEntity
  8
ADD_LINE
  6
DOT
 62
     9
100
AcDbLine
 10
260.4204078998464
 20
119.4304830843073
 30
0.0
 11
260.4204078998464
 21
226.0721742179611
 31
0.0
  0
LINE
  5
165
330
6F
100
AcDbEntity
  8
ADD_LINE
  6
DOT
 62
     9
100
AcDbLine
 10
242.4204078998464
 20
119.4304830843073
 30
0.0
 11
242.4204078998464
 21
226.0721742179611
 31
0.0
  0
LINE
  5
166
330
6F
100
AcDbEntity
  8
ADD_LINE
  6
DOT
 62
     9
100
AcDbLine
 10
71.62040789984665
 20
120.4304830843073
 30
0.0
 11
71.62040789984665
 21
110.7294314483928
 31
0.0
  0
LINE
  5
167
330
6F
100
AcDbEntity
  8
ADD_LINE
  6
DOT
 62
     9
100
AcDbLine
 10
90.72040789984654
 20
120.4304830843073
 30
0.0
 11
90.72040789984654
 21
110.7294314483928
 31
0.0
  0
LINE
  5
168
330
6F
100
AcDbEntity
  8
ADD_LINE
  6
DOT
 62
     9
100
AcDbLine
 10
109.8204078998465
 20
120.4304830843073
 30
0.0
 11
109.8204078998465
 21
110.7294314483928
 31
0.0
  0
LINE
  5
169
330
6F
100
AcDbEntity
  8
ADD_LINE
  6
DOT
 62
     9
100
AcDbLine
 10
128.9204078998464
 20
120.4304830843073
 30
0.0
 11
128.9204078998464
 21
110.7294314483928
 31
0.0
  0
LINE
  5
16A
330
6F
100
AcDbEntity
  8
ADD_LINE
  6
DOT
 62
     9
100
AcDbLine
 10
148.0204078998463
 20
120.4304830843073
 30
0.0
 11
148.0204078998463
 21
110.7294314483928
 31
0.0
  0
LINE
  5
16B
330
6F
100
AcDbEntity
  8
ADD_LINE
  6
DOT
 62
     9
100
AcDbLine
 10
167.1204078998462
 20
120.4304830843073
 30
0.0
 11
167.1204078998462
 21
110.7294314483928
 31
0.0
  0
LINE
  5
16C
330
6F
100
AcDbEntity
  8
ADD_LINE
  6
DOT
 62
     9
100
AcDbLine
 10
186.220407899846
 20
120.4304830843073
 30
0.0
 11
186.220407899846
 21
110.7294314483928
 31
0.0
  0
LINE
  5
16D
330
6F
100
AcDbEntity
  8
ADD_LINE
  6
DOT
 62
     9
100
AcDbLine
 10
205.320407899846
 20
120.4304830843073
 30
0.0
 11
205.320407899846
 21
110.7294314483928
 31
0.0
  0
LINE
  5
16E
330
6F
100
AcDbEntity
  8
ADD_LINE
  6
DOT
 62
     9
100
AcDbLine
 10
224.420407899846
 20
120.4304830843073
 30
0.0
 11
224.420407899846
 21
110.7294314483928
 31
0.0
  0
LINE
  5
16F
330
6F
100
AcDbEntity
  8
ADD_LINE
  6
DOT
 62
     9
100
AcDbLine
 10
45.28514426124849
 20
212.2102943643073
 30
0.0
 11
246.7113169907558
 21
212.2102943643073
 31
0.0
  0
LINE
  5
170
330
6F
100
AcDbEntity
  8
_2-2_舗装
  6
Continuous
 62
    18
100
AcDbLine
 10
223.2204078998464
 20
212.2102943643073
 30
0.0
 11
225.6204078998465
 21
212.2102943643073
 31
0.0
  0
LINE
  5
171
330
6F
100
AcDbEntity
  8
ADD_LINE
  6
DOT
 62
     9
100
AcDbLine
 10
49.63138474661059
 20
183.9851614221034
 30
0.0
 11
243.2703164614269
 21
183.9851614221034
 31
0.0
  0
LINE
  5
172
330
6F
100
AcDbEntity
  8
ADD_LINE
  6
DOT
 62
     9
100
AcDbLine
 10
163.8887651536057
 20
222.7650012413342
 30
0.0
 11
205.5315461675446
 21
222.7650012413342
 31
0.0
  0
LINE
  5
173
330
6F
100
AcDbEntity
  8
_2-2_舗装
  6
Continuous
 62
    18
100
AcDbLine
 10
168.3204078998468
 20
256.3102943667425
 30
0.0
 11
168.3204078998468
 21
253.3102943667425
 31
0.0
  0
LINE
  5
174
330
6F
100
AcDbEntity
  8
_2-2_舗装
  6
Continuous
 62
    18
100
AcDbLine
 10
165.9204078998467
 20
253.3102943667425
 30
0.0
 11
168.3204078998468
 21
253.3102943667425
 31
0.0
  0
LINE
  5
175
330
6F
100
AcDbEntity
  8
_2-2_舗装
  6
Continuous
 62
    18
100
AcDbLine
 10
223.2204078998313
 20
207.2102943643073
 30
0.0
 11
225.6204078998615
 21
207.2102943643073
 31
0.0
  0
LINE
  5
176
330
6F
100
AcDbEntity
  8
_2-2_舗装
  6
Continuous
 62
    18
100
AcDbLine
 10
223.2204078998313
 20
201.2102943643073
 30
0.0
 11
223.2204078998313
 21
207.2102943643073
 31
0.0
  0
LINE
  5
177
330
6F
100
AcDbEntity
  8
ADD_LINE
  6
DOT
 62
    18
100
AcDbLine
 10
0.0
 20
291.6969696969697
 30
0.0
 11
297.0
 21
291.6969696969697
 31
0.0
  0
LINE
  5
178
330
6F
100
AcDbEntity
  8
ADD_LINE
  6
DOT
 62
     9
100
AcDbLine
 10
297.0
 20
286.3939393939394
 30
0.0
 11
0.0
 21
286.3939393939394
 31
0.0
  0
LINE
  5
179
330
6F
100
AcDbEntity
  8
_F-0_F-0___
  6
Continuous
 62
     9
100
AcDbLine
 10
297.0
 20
297.0
 30
0.0
 11
0.0
 21
297.0
 31
0.0
  0
LINE
  5
17A
330
6F
100
AcDbEntity
  8
_F-0_F-0___
  6
Continuous
 62
     9
100
AcDbLine
 10
0.0
 20
297.0
 30
0.0
 11
297.0
 21
297.0
 31
0.0
  0
LINE
  5
17B
330
6F
100
AcDbEntity
  8
_F-F_補助線
  6
Continuous
 62
     9
100
AcDbLine
 10
297.0
 20
297.0
 30
0.0
 11
0.0
 21
297.0
 31
0.0
  0
LINE
  5
17C
330
6F
100
AcDbEntity
  8
ADD_LINE
  6
DOT
 62
     9
100
AcDbLine
 10
0.0
 20
297.0
 30
0.0
 11
297.0
 21
297.0
 31
0.0
  0
LINE
  5
17D
330
6F
100
AcDbEntity
  8
_F-0_F-0___
  6
Continuous
 62
     9
100
AcDbLine
 10
297.0
 20
297.0
 30
0.0
 11
0.0
 21
297.0
 31
0.0
  0
LINE
  5
17E
330
6F
100
AcDbEntity
  8
_F-0_F-0___
  6
Continuous
 62
     9
100
AcDbLine
 10
0.0
 20
297.0
 30
0.0
 11
297.0
 21
297.0
 31
0.0
  0
LINE
  5
17F
330
6F
100
AcDbEntity
  8
_F-F_補助線
  6
Continuous
 62
     9
100
AcDbLine
 10
297.0
 20
297.0
 30
0.0
 11
0.0
 21
297.0
 31
0.0
  0
LINE
  5
180
330
6F
100
AcDbEntity
  8
ADD_LINE
  6
DOT
 62
     9
100
AcDbLine
 10
0.0
 20
297.0
 30
0.0
 11
297.0
 21
297.0
 31
0.0
  0
LINE
  5
181
330
6F
100
AcDbEntity
  8
ADD_LINE
  6
DOT
 62
     9
100
AcDbLine
 10
297.0
 20
97.60606060606058
 30
0.0
 11
0.0
 21
97.60606060606058
 31
0.0
  0
LINE
  5
182
330
6F
100
AcDbEntity
  8
ADD_LINE
  6
DOT
 62
    18
100
AcDbLine
 10
297.0
 20
92.30303030303032
 30
0.0
 11
0.0
 21
92.30303030303032
 31
0.0
  0
LINE
  5
183
330
6F
100
AcDbEntity
  8
_F-0_F-0___
  6
Continuous
 62
     9
100
AcDbLine
 10
297.0
 20
87.0
 30
0.0
 11
0.0
 21
87.0
 31
0.0
  0
LINE
  5
184
330
6F
100
AcDbEntity
  8
_F-F_補助線
  6
Continuous
 62
     9
100
AcDbLine
 10
297.0
 20
87.0
 30
0.0
 11
0.0
 21
87.0
 31
0.0
  0
LINE
  5
185
330
6F
100
AcDbEntity
  8
ADD_LINE
  6
DOT
 62
    18
100
AcDbLine
 10
273.6642857142857
 20
268.7171717171716
 30
0.0
 11
273.6642857142857
 21
289.18992185111
 31
0.0
  0
LINE
  5
186
330
6F
100
AcDbEntity
  8
_F-F_補助線
  6
Continuous
 62
     9
100
AcDbLine
 10
0.0
 20
87.0
 30
0.0
 11
0.0
 21
297.0
 31
0.0
  0
LINE
  5
187
330
6F
100
AcDbEntity
  8
_F-0_F-0___
  6
Continuous
 62
     9
100
AcDbLine
 10
297.0
 20
87.0
 30
0.0
 11
297.0
 21
297.0
 31
0.0
  0
LINE
  5
188
330
6F
100
AcDbEntity
  8
ADD_LINE
  6
DOT
 62
     9
100
AcDbLine
 10
286.3928571428571
 20
297.0
 30
0.0
 11
286.3928571428571
 21
87.0
 31
0.0
  0
LINE
  5
189
330
6F
100
AcDbEntity
  8
ADD_LINE
  6
DOT
 62
    18
100
AcDbLine
 10
291.6964285714287
 20
297.0
 30
0.0
 11
291.6964285714287
 21
87.0
 31
0.0
  0
LINE
  5
18A
330
6F
100
AcDbEntity
  8
ADD_LINE
  6
DOT
 62
     9
100
AcDbLine
 10
10.60714285714286
 20
87.0
 30
0.0
 11
10.60714285714286
 21
297.0
 31
0.0
  0
LINE
  5
18B
330
6F
100
AcDbEntity
  8
ADD_LINE
  6
DOT
 62
    18
100
AcDbLine
 10
5.303571428571416
 20
87.0
 30
0.0
 11
5.303571428571416
 21
297.0
 31
0.0
  0
LINE
  5
18C
330
6F
100
AcDbEntity
  8
_F-0_F-0___
  6
Continuous
 62
     9
100
AcDbLine
 10
297.0
 20
297.0
 30
0.0
 11
297.0
 21
87.0
 31
0.0
  0
LINE
  5
18D
330
6F
100
AcDbEntity
  8
_F-F_補助線
  6
Continuous
 62
     9
100
AcDbLine
 10
297.0
 20
87.0
 30
0.0
 11
297.0
 21
297.0
 31
0.0
  0
LINE
  5
18E
330
6F
100
AcDbEntity
  8
_F-0_F-0___
  6
Continuous
 62
     9
100
AcDbLine
 10
0.0
 20
87.0
 30
0.0
 11
0.0
 21
297.0
 31
0.0
  0
ARC
  5
18F
330
6F
100
AcDbEntity
  8
_2-3_植栽
  6
Continuous
 62
    18
100
AcDbCircle
 10
148.0204078998466
 20
268.9539946085318
 30
0.0
 40
0.75
100
AcDbArc
 50
0.0
 51
180.0
  0
LINE
  5
190
330
6F
100
AcDbEntity
  8
ADD_LINE
  6
DOT
 62
     9
100
AcDbLine
 10
65.03975472682885
 20
182.8240101322886
 30
0.0
 11
0.0
 21
182.8240101322886
 31
0.0
  0
LINE
  5
191
330
6F
100
AcDbEntity
  8
ADD_LINE
  6
DOT
 62
     9
100
AcDbLine
 10
297.0
 20
111.4304830843073
 30
0.0
 11
0.0
 21
111.4304830843073
 31
0.0
  0
LINE
  5
192
330
6F
100
AcDbEntity
  8
ADD_LINE
  6
DOT
 62
     9
100
AcDbLine
 10
297.0
 20
131.4304830843073
 30
0.0
 11
0.0
 21
131.4304830843073
 31
0.0
  0
LINE
  5
193
330
6F
100
AcDbEntity
  8
ADD_LINE
  6
DOT
 62
     9
100
AcDbLine
 10
297.0
 20
119.4304830843073
 30
0.0
 11
0.0
 21
119.4304830843073
 31
0.0
  0
LINE
  5
194
330
6F
100
AcDbEntity
  8
ADD_LINE
  6
DOT
 62
     9
100
AcDbLine
 10
297.0
 20
127.4304830843073
 30
0.0
 11
0.0
 21
127.4304830843073
 31
0.0
  0
LINE
  5
195
330
6F
100
AcDbEntity
  8
ADD_LINE
  6
DOT
 62
     9
100
AcDbLine
 10
297.0
 20
121.4304830843073
 30
0.0
 11
0.0
 21
121.4304830843073
 31
0.0
  0
LINE
  5
196
330
6F
100
AcDbEntity
  8
ADD_LINE
  6
DOT
 62
     9
100
AcDbLine
 10
297.0
 20
123.4304830843073
 30
0.0
 11
0.0
 21
123.4304830843073
 31
0.0
  0
LINE
  5
197
330
6F
100
AcDbEntity
  8
ADD_LINE
  6
DOT
 62
     9
100
AcDbLine
 10
297.0
 20
127.4304830843073
 30
0.0
 11
0.0
 21
127.4304830843073
 31
0.0
  0
TEXT
  5
198
330
6F
100
AcDbEntity
  8
_2-E_文字
 62
     3
100
AcDbText
 10
273.1101184182572
 20
96.94724516305278
 30
0.0
 40
3.0
  1
S=1/50
 41
0.8333333333333332
100
AcDbText
  0
TEXT
  5
199
330
6F
100
AcDbEntity
  8
_2-E_文字
 62
     3
100
AcDbText
 10
245.7124269483156
 20
165.6532823967691
 30
0.0
 40
2.5
  1
±0
 41
0.8
100
AcDbText
  0
TEXT
  5
19A
330
6F
100
AcDbEntity
  8
_2-E_文字
 62
     3
100
AcDbText
 10
238.7434153114419
 20
165.3528939641453
 30
0.0
 40
2.5
  1
1FL
 41
0.8
100
AcDbText
  0
TEXT
  5
19B
330
6F
100
AcDbEntity
  8
_2-E_文字
 62
     3
100
AcDbText
 10
124.2454078998464
 20
182.7351614221034
 30
0.0
 40
2.5
  1
和室8畳・
 41
0.8
100
AcDbText
  0
TEXT
  5
19C
330
6F
100
AcDbEntity
  8
_2-E_文字
 62
     3
100
AcDbText
 10
193.245724685514
 20
182.6313756336984
 30
0.0
 40
2.5
  1
台所・
 41
0.8
100
AcDbText
  0
TEXT
  5
19D
330
6F
100
AcDbEntity
  8
_2-E_文字
 62
     3
100
AcDbText
 10
181.0204078998466
 20
221.5150012413341
 30
0.0
 40
2.5
  1
屋根裏部屋
 41
0.8
100
AcDbText
  0
TEXT
  5
19E
330
6F
100
AcDbEntity
  8
_2-E_文字
 62
     3
100
AcDbText
 10
79.23612724216972
 20
182.8842538698376
 30
0.0
 40
2.5
  1
縁側
 41
0.8
100
AcDbText
  0
TEXT
  5
19F
330
6F
100
AcDbEntity
  8
_2-E_文字
 62
     3
100
AcDbText
 10
236.2227237358351
 20
207.5421913527761
 30
0.0
 40
2.5
  1
差鴨居天
 41
0.8
100
AcDbText
  0
TEXT
  5
1A0
330
6F
100
AcDbEntity
  8
_2-E_文字
 62
     3
100
AcDbText
 10
237.5966013914155
 20
212.4320140390843
 30
0.0
 40
2.5
  1
下屋桁
 41
0.8
100
AcDbText
  0
TEXT
  5
1A1
330
6F
100
AcDbEntity
  8
_2-E_文字
 62
     3
100
AcDbText
 10
239.5544094113546
 20
237.5912648773975
 30
0.0
 40
2.5
  1
軒桁
 41
0.8
100
AcDbText
  0
TEXT
  5
1A2
330
6F
100
AcDbEntity
  8
_2-E_文字
 62
     3
100
AcDbText
 10
237.9420757539818
 20
266.0970083260096
 30
0.0
 40
2.5
  1
棟木天
 41
0.8
100
AcDbText
  0
TEXT
  5
1A3
330
6F
100
AcDbEntity
  8
_2-E_文字
 62
     3
100
AcDbText
 10
241.6028923194673
 20
98.15131997443735
 30
0.0
 40
3.0
  1
梁間方向断面図(７通り)
 41
0.8333333333333332
100
AcDbText
  0
TEXT
  5
1A4
330
6F
100
AcDbEntity
  8
_2-E_文字
 62
     3
100
AcDbText
 10
56.8483280957978
 20
216.759401690436
 30
0.0
 40
2.5
  1
4.5
 41
0.8
100
AcDbText
  0
TEXT
  5
1A5
330
6F
100
AcDbEntity
  8
_2-E_文字
 62
     3
100
AcDbText
 10
68.02909723551318
 20
222.3827006739701
 30
0.0
 40
2.5
  1
10
 41
0.8
100
AcDbText
  0
TEXT
  5
1A6
330
6F
100
AcDbEntity
  8
_2-E_文字
 62
     3
100
AcDbText
 10
106.9954698089888
 20
256.3653159030887
 30
0.0
 40
2.5
  1
4.5
 41
0.8
100
AcDbText
  0
TEXT
  5
1A7
330
6F
100
AcDbEntity
  8
_2-E_文字
 62
     3
100
AcDbText
 10
118.1762389487041
 20
261.9886148866228
 30
0.0
 40
2.5
  1
10
 41
0.8
100
AcDbText
  0
TEXT
  5
1A8
330
6F
100
AcDbEntity
  8
_2-E_文字
 62
     3
100
AcDbText
 10
184.7953459907045
 20
256.3653159030887
 30
0.0
 40
2.5
  1
4.5
 41
0.8
100
AcDbText
  0
TEXT
  5
1A9
330
6F
100
AcDbEntity
  8
_2-E_文字
 62
     3
100
AcDbText
 10
175.1145768509891
 20
261.9886148866228
 30
0.0
 40
2.5
  1
10
 41
0.8
100
AcDbText
  0
TEXT
  5
1AA
330
6F
100
AcDbEntity
  8
_2-E_文字
 62
     3
100
AcDbText
 10
225.2617185641801
 20
222.3827006739701
 30
0.0
 40
2.5
  1
10
 41
0.8
100
AcDbText
  0
TEXT
  5
1AB
330
6F
100
AcDbEntity
  8
_2-E_文字
 62
     3
100
AcDbText
 10
234.9424877038956
 20
216.759401690436
 30
0.0
 40
2.5
  1
4.5
 41
0.8
100
AcDbText
  0
TEXT
  5
1AC
330
6F
100
AcDbEntity
  8
_2-E_文字
 62
     3
100
AcDbText
 10
141.3910513552194
 20
223.3263462898011
 30
0.0
 40
2.5
  1
保存構造材断面
 41
0.8
100
AcDbText
  0
TEXT
  5
1AD
330
6F
100
AcDbEntity
  8
_2-E_文字
 62
     3
100
AcDbText
 10
136.9837615790548
 20
227.7336360659656
 30
0.0
 40
2.5
  1
保存構造材見え掛かり
 41
0.8
100
AcDbText
  0
LINE
  5
1AE
330
6F
100
AcDbEntity
  8
_2-0_境界線
  6
CENTER2
 62
    83
100
AcDbLine
 10
264.7024716291005
 20
165.2102943643073
 30
0.0
 11
49.32949880893762
 21
165.2102943643073
 31
0.0
  0
LINE
  5
1AF
330
6F
100
AcDbEntity
  8
_2-0_境界線
  6
CENTER2
 62
    83
100
AcDbLine
 10
109.8204078998465
 20
287.4358105843072
 30
0.0
 11
109.8204078998465
 21
119.4304830843073
 31
0.0
  0
LINE
  5
1B0
330
6F
100
AcDbEntity
  8
_2-0_境界線
  6
CENTER2
 62
    83
100
AcDbLine
 10
205.3204078998466
 20
119.4304830843073
 30
0.0
 11
205.3204078998466
 21
287.4358105843072
 31
0.0
  0
LINE
  5
1B1
330
6F
100
AcDbEntity
  8
_2-0_境界線
  6
CENTER2
 62
    83
100
AcDbLine
 10
148.0204078998466
 20
287.4358105843072
 30
0.0
 11
148.0204078998466
 21
119.4304830843073
 31
0.0
  0
LINE
  5
1B2
330
6F
100
AcDbEntity
  8
_2-0_境界線
  6
CENTER2
 62
    83
100
AcDbLine
 10
186.2204078998466
 20
119.4304830843073
 30
0.0
 11
186.2204078998466
 21
287.4358105843072
 31
0.0
  0
LINE
  5
1B3
330
6F
100
AcDbEntity
  8
_2-0_境界線
  6
CENTER2
 62
    83
100
AcDbLine
 10
264.7024716291005
 20
153.2102943643073
 30
0.0
 11
49.32949880893762
 21
153.2102943643073
 31
0.0
  0
LINE
  5
1B4
330
6F
100
AcDbEntity
  8
_2-0_境界線
  6
CENTER2
 62
    83
100
AcDbLine
 10
167.1204078998468
 20
119.4304830843073
 30
0.0
 11
167.1204078998468
 21
287.4358105843072
 31
0.0
  0
LINE
  5
1B5
330
6F
100
AcDbEntity
  8
_2-0_境界線
  6
CENTER2
 62
    83
100
AcDbLine
 10
250.7556715384449
 20
207.2102943643073
 30
0.0
 11
49.32949880893762
 21
207.2102943643073
 31
0.0
  0
LINE
  5
1B6
330
6F
100
AcDbEntity
  8
_2-0_境界線
  6
CENTER2
 62
    83
100
AcDbLine
 10
149.884149691477
 20
266.7921652638942
 30
0.0
 11
78.24390985230173
 21
230.9720453397396
 31
0.0
  0
LINE
  5
1B7
330
6F
100
AcDbEntity
  8
_2-0_境界線
  6
CENTER2
 62
    83
100
AcDbLine
 10
217.7969059473916
 20
230.9720453397396
 30
0.0
 11
146.1566661082163
 21
266.7921652638942
 31
0.0
  0
LINE
  5
1B8
330
6F
100
AcDbEntity
  8
_2-0_境界線
  6
CENTER2
 62
    83
100
AcDbLine
 10
250.7556715384449
 20
237.2102943643073
 30
0.0
 11
49.32949880893762
 21
237.2102943643073
 31
0.0
  0
LINE
  5
1B9
330
6F
100
AcDbEntity
  8
_2-0_境界線
  6
CENTER2
 62
    83
100
AcDbLine
 10
50.89981616703835
 20
202.8860280836538
 30
0.0
 11
96.7603731668745
 21
223.5232787355492
 31
0.0
  0
LINE
  5
1BA
330
6F
100
AcDbEntity
  8
_2-0_境界線
  6
CENTER2
 62
    83
100
AcDbLine
 10
90.72040789984654
 20
119.4304830843073
 30
0.0
 11
90.72040789984654
 21
287.4358105843072
 31
0.0
  0
LINE
  5
1BB
330
6F
100
AcDbEntity
  8
_2-0_境界線
  6
CENTER2
 62
    83
100
AcDbLine
 10
250.7556715384449
 20
212.2102943651273
 30
0.0
 11
49.32949880893762
 21
212.2102943651273
 31
0.0
  0
LINE
  5
1BC
330
6F
100
AcDbEntity
  8
_2-0_境界線
  6
CENTER2
 62
    83
100
AcDbLine
 10
245.1409996326549
 20
202.8860280836538
 30
0.0
 11
199.2804426328188
 21
223.5232787355492
 31
0.0
  0
LINE
  5
1BD
330
6F
100
AcDbEntity
  8
_2-0_境界線
  6
CENTER2
 62
    83
100
AcDbLine
 10
250.7556715384449
 20
265.8602943643073
 30
0.0
 11
49.32949880893762
 21
265.8602943643073
 31
0.0
  0
LINE
  5
1BE
330
6F
100
AcDbEntity
  8
_2-0_境界線
  6
CENTER2
 62
    83
100
AcDbLine
 10
128.9204078998464
 20
119.4304830843073
 30
0.0
 11
128.9204078998464
 21
235.5568203885396
 31
0.0
  0
LINE
  5
1BF
330
6F
100
AcDbEntity
  8
_2-0_境界線
  6
CENTER2
 62
    83
100
AcDbLine
 10
128.9204078998464
 20
235.5568203885396
 30
0.0
 11
128.9204078998464
 21
287.4358105843072
 31
0.0
  0
LINE
  5
1C0
330
6F
100
AcDbEntity
  8
_2-0_境界線
  6
CENTER2
 62
    83
100
AcDbLine
 10
224.4204078998464
 20
119.4304830843073
 30
0.0
 11
224.4204078998464
 21
218.4982378676341
 31
0.0
  0
LINE
  5
1C1
330
6F
100
AcDbEntity
  8
_2-0_境界線
  6
CENTER2
 62
    83
100
AcDbLine
 10
71.62040789984665
 20
119.4304830843073
 30
0.0
 11
71.62040789984665
 21
218.1132045552051
 31
0.0
  0
LINE
  5
1C2
330
6F
100
AcDbEntity
  8
_2-C_ハッチ
  6
Continuous
 62
    83
100
AcDbLine
 10
72.82040789984666
 20
204.2102943643073
 30
0.0
 11
70.42040789984669
 21
201.2102943643073
 31
0.0
  0
LINE
  5
1C3
330
6F
100
AcDbEntity
  8
_2-C_ハッチ
  6
Continuous
 62
    83
100
AcDbLine
 10
70.42040789984669
 20
204.2102943643073
 30
0.0
 11
72.82040789984666
 21
201.2102943643073
 31
0.0
  0
LINE
  5
1C4
330
6F
100
AcDbEntity
  8
_2-C_ハッチ
  6
Continuous
 62
    83
100
AcDbLine
 10
91.8704078998466
 20
207.2102943643073
 30
0.0
 11
89.37040789984655
 21
201.2102943643073
 31
0.0
  0
LINE
  5
1C5
330
6F
100
AcDbEntity
  8
_2-C_ハッチ
  6
Continuous
 62
    83
100
AcDbLine
 10
89.57040789984656
 20
207.2102943643073
 30
0.0
 11
92.07040789984658
 21
201.2102943643073
 31
0.0
  0
LINE
  5
1C6
330
6F
100
AcDbEntity
  8
_2-C_ハッチ
  6
Continuous
 62
    83
100
AcDbLine
 10
168.4704078998468
 20
207.2102943643073
 30
0.0
 11
165.7704078998467
 21
201.2102943643073
 31
0.0
  0
LINE
  5
1C7
330
6F
100
AcDbEntity
  8
_2-C_ハッチ
  6
Continuous
 62
    83
100
AcDbLine
 10
165.7704078998467
 20
207.2102943643073
 30
0.0
 11
168.4704078998468
 21
201.2102943643073
 31
0.0
  0
LINE
  5
1C8
330
6F
100
AcDbEntity
  8
_2-C_ハッチ
  6
Continuous
 62
    83
100
AcDbLine
 10
187.4204078998467
 20
207.223233093122
 30
0.0
 11
185.0203975016597
 21
202.4102943643073
 31
0.0
  0
LINE
  5
1C9
330
6F
100
AcDbEntity
  8
_2-C_ハッチ
  6
Continuous
 62
    83
100
AcDbLine
 10
185.0203975016597
 20
207.223233093122
 30
0.0
 11
187.4204078998467
 21
202.4102943643073
 31
0.0
  0
LINE
  5
1CA
330
6F
100
AcDbEntity
  8
_2-C_ハッチ
  6
Continuous
 62
    83
100
AcDbLine
 10
206.5204182981166
 20
207.2102943643073
 30
0.0
 11
204.1204078998465
 21
202.3973556355073
 31
0.0
  0
LINE
  5
1CB
330
6F
100
AcDbEntity
  8
_2-C_ハッチ
  6
Continuous
 62
    83
100
AcDbLine
 10
204.1204078998465
 20
207.2102943643073
 30
0.0
 11
206.5204182981166
 21
202.3973556355073
 31
0.0
  0
LINE
  5
1CC
330
6F
100
AcDbEntity
  8
_2-C_ハッチ
  6
Continuous
 62
    83
100
AcDbLine
 10
225.6204078998464
 20
207.1649873074163
 30
0.0
 11
223.2204597766433
 21
201.2102943643073
 31
0.0
  0
LINE
  5
1CD
330
6F
100
AcDbEntity
  8
_2-C_ハッチ
  6
Continuous
 62
    83
100
AcDbLine
 10
72.82040789984666
 20
163.7102943643073
 30
0.0
 11
70.42040789984669
 21
160.7102943643073
 31
0.0
  0
LINE
  5
1CE
330
6F
100
AcDbEntity
  8
_2-C_ハッチ
  6
Continuous
 62
    83
100
AcDbLine
 10
70.42040789984669
 20
163.7102943643073
 30
0.0
 11
72.82040789984666
 21
160.7102943643073
 31
0.0
  0
LINE
  5
1CF
330
6F
100
AcDbEntity
  8
_2-C_ハッチ
  6
Continuous
 62
    83
100
AcDbLine
 10
89.52040789984659
 20
163.7102943643073
 30
0.0
 11
91.92040789984655
 21
160.7102943643073
 31
0.0
  0
LINE
  5
1D0
330
6F
100
AcDbEntity
  8
_2-C_ハッチ
  6
Continuous
 62
    83
100
AcDbLine
 10
91.92040789984655
 20
163.7102943643073
 30
0.0
 11
89.52040789984659
 21
160.7102943643073
 31
0.0
  0
LINE
  5
1D1
330
6F
100
AcDbEntity
  8
_2-C_ハッチ
  6
Continuous
 62
    83
100
AcDbLine
 10
110.8704078998464
 20
163.7102943643073
 30
0.0
 11
108.7704078998465
 21
161.6102943643072
 31
0.0
  0
LINE
  5
1D2
330
6F
100
AcDbEntity
  8
_2-C_ハッチ
  6
Continuous
 62
    83
100
AcDbLine
 10
129.9704078998463
 20
163.7102943643073
 30
0.0
 11
127.8704078998464
 21
161.6102943643072
 31
0.0
  0
LINE
  5
1D3
330
6F
100
AcDbEntity
  8
_2-C_ハッチ
  6
Continuous
 62
    83
100
AcDbLine
 10
129.9704078998464
 20
163.7102943643073
 30
0.0
 11
127.8704078998465
 21
161.6102943643072
 31
0.0
  0
LINE
  5
1D4
330
6F
100
AcDbEntity
  8
_2-C_ハッチ
  6
Continuous
 62
    83
100
AcDbLine
 10
149.0704078998466
 20
163.7102943643073
 30
0.0
 11
146.9704078998467
 21
161.6102943643072
 31
0.0
  0
LINE
  5
1D5
330
6F
100
AcDbEntity
  8
_2-C_ハッチ
  6
Continuous
 62
    83
100
AcDbLine
 10
168.3204078998461
 20
163.7102943643073
 30
0.0
 11
165.9204078998462
 21
160.7102943643073
 31
0.0
  0
LINE
  5
1D6
330
6F
100
AcDbEntity
  8
_2-C_ハッチ
  6
Continuous
 62
    83
100
AcDbLine
 10
165.9204078998462
 20
163.7102943643073
 30
0.0
 11
168.3204078998461
 21
160.7102943643073
 31
0.0
  0
LINE
  5
1D7
330
6F
100
AcDbEntity
  8
_2-C_ハッチ
  6
Continuous
 62
    83
100
AcDbLine
 10
225.6204078998464
 20
163.7102943643073
 30
0.0
 11
223.2204078998464
 21
161.3102943643073
 31
0.0
  0
LINE
  5
1D8
330
6F
100
AcDbEntity
  8
_2-C_ハッチ
  6
Continuous
 62
    83
100
AcDbLine
 10
223.2204078998464
 20
163.7102943643073
 30
0.0
 11
225.6204078998464
 21
161.3102943643073
 31
0.0
  0
LINE
  5
1D9
330
6F
100
AcDbEntity
  8
_2-C_ハッチ
  6
Continuous
 62
    83
100
AcDbLine
 10
225.6204078998464
 20
156.8102943643073
 30
0.0
 11
223.2204078998464
 21
154.4102943643073
 31
0.0
  0
LINE
  5
1DA
330
6F
100
AcDbEntity
  8
_2-C_ハッチ
  6
Continuous
 62
    83
100
AcDbLine
 10
223.2204078998464
 20
156.8102943643073
 30
0.0
 11
225.6204078998464
 21
154.4102943643073
 31
0.0
  0
LINE
  5
1DB
330
6F
100
AcDbEntity
  8
_2-C_ハッチ
  6
Continuous
 62
    83
100
AcDbLine
 10
72.82040789984666
 20
156.8102943643073
 30
0.0
 11
70.42040789984669
 21
154.4102943643073
 31
0.0
  0
LINE
  5
1DC
330
6F
100
AcDbEntity
  8
_2-C_ハッチ
  6
Continuous
 62
    83
100
AcDbLine
 10
70.42040789984669
 20
156.8102943643073
 30
0.0
 11
72.82040789984666
 21
154.4102943643073
 31
0.0
  0
LINE
  5
1DD
330
6F
100
AcDbEntity
  8
_2-C_ハッチ
  6
Continuous
 62
    83
100
AcDbLine
 10
149.2204078998467
 20
265.8602943679602
 30
0.0
 11
146.8204078998466
 21
262.8602943679602
 31
0.0
  0
LINE
  5
1DE
330
6F
100
AcDbEntity
  8
_2-C_ハッチ
  6
Continuous
 62
    83
100
AcDbLine
 10
146.8204078998466
 20
265.8602943679602
 30
0.0
 11
149.2204078998467
 21
262.8602943679602
 31
0.0
  0
LINE
  5
1DF
330
6F
100
AcDbEntity
  8
_2-C_ハッチ
  6
Continuous
 62
    83
100
AcDbLine
 10
130.1204078998464
 20
256.3102943667425
 30
0.0
 11
127.7204078998463
 21
253.3102943667425
 31
0.0
  0
LINE
  5
1E0
330
6F
100
AcDbEntity
  8
_2-C_ハッチ
  6
Continuous
 62
    83
100
AcDbLine
 10
127.7204078998463
 20
256.3102943667425
 30
0.0
 11
130.1204078998464
 21
253.3102943667425
 31
0.0
  0
LINE
  5
1E1
330
6F
100
AcDbEntity
  8
_2-C_ハッチ
  6
Continuous
 62
    83
100
AcDbLine
 10
111.0204078998465
 20
246.7602943655248
 30
0.0
 11
108.6204078998464
 21
243.7602943655249
 31
0.0
  0
LINE
  5
1E2
330
6F
100
AcDbEntity
  8
_2-C_ハッチ
  6
Continuous
 62
    83
100
AcDbLine
 10
108.6204078998464
 20
246.7602943655248
 30
0.0
 11
111.0204078998465
 21
243.7602943655249
 31
0.0
  0
LINE
  5
1E3
330
6F
100
AcDbEntity
  8
_2-C_ハッチ
  6
Continuous
 62
    83
100
AcDbLine
 10
92.07040789984658
 20
237.2102943643073
 30
0.0
 11
89.37040789984655
 21
234.5102943643074
 31
0.0
  0
LINE
  5
1E4
330
6F
100
AcDbEntity
  8
_2-C_ハッチ
  6
Continuous
 62
    83
100
AcDbLine
 10
89.37040789984655
 20
237.2102943643073
 30
0.0
 11
92.07040789984658
 21
234.5102943643074
 31
0.0
  0
LINE
  5
1E5
330
6F
100
AcDbEntity
  8
_2-C_ハッチ
  6
Continuous
 62
    83
100
AcDbLine
 10
168.3204078998469
 20
256.3102943667425
 30
0.0
 11
165.9204078998468
 21
253.3102943667425
 31
0.0
  0
LINE
  5
1E6
330
6F
100
AcDbEntity
  8
_2-C_ハッチ
  6
Continuous
 62
    83
100
AcDbLine
 10
185.0204078998468
 20
246.7602943655248
 30
0.0
 11
187.4204078998468
 21
243.7602943655249
 31
0.0
  0
LINE
  5
1E7
330
6F
100
AcDbEntity
  8
_2-C_ハッチ
  6
Continuous
 62
    83
100
AcDbLine
 10
187.4204078998468
 20
246.7602943655248
 30
0.0
 11
185.0204078998468
 21
243.7602943655249
 31
0.0
  0
LINE
  5
1E8
330
6F
100
AcDbEntity
  8
_2-C_ハッチ
  6
Continuous
 62
    83
100
AcDbLine
 10
168.4704078998468
 20
237.2102943643073
 30
0.0
 11
165.7704078998467
 21
232.4102943643073
 31
0.0
  0
LINE
  5
1E9
330
6F
100
AcDbEntity
  8
_2-C_ハッチ
  6
Continuous
 62
    83
100
AcDbLine
 10
165.7704078998467
 20
237.2102943643073
 30
0.0
 11
168.4704078998468
 21
232.4102943643073
 31
0.0
  0
LINE
  5
1EA
330
6F
100
AcDbEntity
  8
_2-C_ハッチ
  6
Continuous
 62
    83
100
AcDbLine
 10
223.2204078998467
 20
212.2102943643072
 30
0.0
 11
225.6204078998465
 21
209.8102943643072
 31
0.0
  0
LINE
  5
1EB
330
6F
100
AcDbEntity
  8
_2-C_ハッチ
  6
Continuous
 62
    83
100
AcDbLine
 10
225.6204078998465
 20
212.2102943643072
 30
0.0
 11
223.2204078998467
 21
209.8102943643072
 31
0.0
  0
LINE
  5
1EC
330
6F
100
AcDbEntity
  8
_2-C_ハッチ
  6
Continuous
 62
    83
100
AcDbLine
 10
206.5204078998466
 20
220.2652943650758
 30
0.0
 11
207.7204078998467
 21
218.4652943650757
 31
0.0
  0
LINE
  5
1ED
330
6F
100
AcDbEntity
  8
_2-C_ハッチ
  6
Continuous
 62
    83
100
AcDbLine
 10
72.82040789984659
 20
212.2102943643072
 30
0.0
 11
70.42040789984674
 21
209.8102943643072
 31
0.0
  0
LINE
  5
1EE
330
6F
100
AcDbEntity
  8
_2-C_ハッチ
  6
Continuous
 62
    83
100
AcDbLine
 10
70.42040789984674
 20
212.2102943643072
 30
0.0
 11
72.82040789984659
 21
209.8102943643072
 31
0.0
  0
LINE
  5
1EF
330
6F
100
AcDbEntity
  8
_2-C_ハッチ
  6
Continuous
 62
    83
100
AcDbLine
 10
89.52040789984664
 20
220.2652943650758
 30
0.0
 11
88.32040789984658
 21
218.4652943650757
 31
0.0
  0
LINE
  5
1F0
330
6F
100
AcDbEntity
  8
_2-C_ハッチ
  6
Continuous
 62
    83
100
AcDbLine
 10
165.9204078998468
 20
256.3102943667425
 30
0.0
 11
168.3204078998469
 21
253.3102943667425
 31
0.0
  0
LINE
  5
1F1
330
6F
100
AcDbEntity
  8
_2-C_ハッチ
  6
Continuous
 62
    83
100
AcDbLine
 10
225.6204078998464
 20
201.2102943643073
 30
0.0
 11
223.2204597766433
 21
207.1649873074163
 31
0.0
  0
LINE
  5
1F2
330
6F
100
AcDbEntity
  8
_2-C_ハッチ
  6
Continuous
 62
    83
100
AcDbLine
 10
168.1352700611556
 20
234.5134714170807
 30
0.0
 11
169.7124221734024
 21
236.0906235293276
 31
0.0
  0
LINE
  5
1F3
330
6F
100
AcDbEntity
  8
_2-C_ハッチ
  6
Continuous
 62
    83
100
AcDbLine
 10
166.5362010650776
 20
234.6114586958494
 30
0.0
 11
169.7168415907849
 21
237.7920992215566
 31
0.0
  0
LINE
  5
1F4
330
6F
100
AcDbEntity
  8
_2-C_ハッチ
  6
Continuous
 62
    83
100
AcDbLine
 10
164.937132068998
 20
234.7094459746181
 30
0.0
 11
169.7212610081675
 21
239.4935749137875
 31
0.0
  0
LINE
  5
1F5
330
6F
100
AcDbEntity
  8
_2-C_ハッチ
  6
Continuous
 62
    83
100
AcDbLine
 10
163.3380630729187
 20
234.8074332533872
 30
0.0
 11
168.7409241838391
 21
240.2102943643074
 31
0.0
  0
LINE
  5
1F6
330
6F
100
AcDbEntity
  8
_2-C_ハッチ
  6
Continuous
 62
    83
100
AcDbLine
 10
161.7389940768408
 20
234.9054205321558
 30
0.0
 11
167.0438679089919
 21
240.2102943643069
 31
0.0
  0
LINE
  5
1F7
330
6F
100
AcDbEntity
  8
_2-C_ハッチ
  6
Continuous
 62
    83
100
AcDbLine
 10
160.1399250807611
 20
235.0034078109246
 30
0.0
 11
165.346811634144
 21
240.2102943643073
 31
0.0
  0
LINE
  5
1F8
330
6F
100
AcDbEntity
  8
_2-C_ハッチ
  6
Continuous
 62
    83
100
AcDbLine
 10
158.540856084682
 20
235.1013950896937
 30
0.0
 11
163.7058022547561
 21
240.2663412597679
 31
0.0
  0
LINE
  5
1F9
330
6F
100
AcDbEntity
  8
_2-C_ハッチ
  6
Continuous
 62
    83
100
AcDbLine
 10
156.9417870886041
 20
235.1993823684624
 30
0.0
 11
162.1067332586784
 21
240.3643285385367
 31
0.0
  0
LINE
  5
1FA
330
6F
100
AcDbEntity
  8
_2-C_ハッチ
  6
Continuous
 62
    83
100
AcDbLine
 10
155.3427180925244
 20
235.297369647231
 30
0.0
 11
160.507664262599
 21
240.4623158173057
 31
0.0
  0
LINE
  5
1FB
330
6F
100
AcDbEntity
  8
_2-C_ハッチ
  6
Continuous
 62
    83
100
AcDbLine
 10
153.7436490964457
 20
235.3953569259997
 30
0.0
 11
158.9085952665203
 21
240.5603030960744
 31
0.0
  0
LINE
  5
1FC
330
6F
100
AcDbEntity
  8
_2-C_ハッチ
  6
Continuous
 62
    83
100
AcDbLine
 10
152.1445801003673
 20
235.4933442047688
 30
0.0
 11
157.3095262704418
 21
240.6582903748433
 31
0.0
  0
LINE
  5
1FD
330
6F
100
AcDbEntity
  8
_2-C_ハッチ
  6
Continuous
 62
    83
100
AcDbLine
 10
150.5455111042876
 20
235.5913314835376
 30
0.0
 11
155.7104572743621
 21
240.7562776536121
 31
0.0
  0
LINE
  5
1FE
330
6F
100
AcDbEntity
  8
_2-C_ハッチ
  6
Continuous
 62
    83
100
AcDbLine
 10
148.9464421082098
 20
235.6893187623062
 30
0.0
 11
154.1113882782844
 21
240.8542649323808
 31
0.0
  0
LINE
  5
1FF
330
6F
100
AcDbEntity
  8
_2-C_ハッチ
  6
Continuous
 62
    83
100
AcDbLine
 10
147.3473731121305
 20
235.7873060410753
 30
0.0
 11
152.5123192822051
 21
240.95225221115
 31
0.0
  0
LINE
  5
200
330
6F
100
AcDbEntity
  8
_2-C_ハッチ
  6
Continuous
 62
    83
100
AcDbLine
 10
145.7109907519364
 20
235.8479799557297
 30
0.0
 11
150.9132502861253
 21
241.0502394899185
 31
0.0
  0
LINE
  5
201
330
6F
100
AcDbEntity
  8
_2-C_ハッチ
  6
Continuous
 62
    83
100
AcDbLine
 10
144.0139344770898
 20
235.8479799557296
 30
0.0
 11
149.3141812900477
 21
241.1482267686874
 31
0.0
  0
LINE
  5
202
330
6F
100
AcDbEntity
  8
_2-C_ハッチ
  6
Continuous
 62
    83
100
AcDbLine
 10
142.3168782022414
 20
235.8479799557295
 30
0.0
 11
147.7151122939681
 21
241.2462140474562
 31
0.0
  0
LINE
  5
203
330
6F
100
AcDbEntity
  8
_2-C_ハッチ
  6
Continuous
 62
    83
100
AcDbLine
 10
140.6198219273934
 20
235.8479799557299
 30
0.0
 11
146.1012641470027
 21
241.3294221753391
 31
0.0
  0
LINE
  5
204
330
6F
100
AcDbEntity
  8
_2-C_ハッチ
  6
Continuous
 62
    83
100
AcDbLine
 10
138.9227656525466
 20
235.8479799557296
 30
0.0
 11
144.4042078721566
 21
241.3294221753396
 31
0.0
  0
LINE
  5
205
330
6F
100
AcDbEntity
  8
_2-C_ハッチ
  6
Continuous
 62
    83
100
AcDbLine
 10
137.2257093776983
 20
235.8479799557297
 30
0.0
 11
142.7071515973081
 21
241.3294221753394
 31
0.0
  0
LINE
  5
206
330
6F
100
AcDbEntity
  8
_2-C_ハッチ
  6
Continuous
 62
    83
100
AcDbLine
 10
135.528653102852
 20
235.8479799557299
 30
0.0
 11
141.0100953224613
 21
241.3294221753393
 31
0.0
  0
LINE
  5
207
330
6F
100
AcDbEntity
  8
_2-C_ハッチ
  6
Continuous
 62
    83
100
AcDbLine
 10
133.8315968280034
 20
235.8479799557297
 30
0.0
 11
139.3130390476133
 21
241.3294221753396
 31
0.0
  0
LINE
  5
208
330
6F
100
AcDbEntity
  8
_2-C_ハッチ
  6
Continuous
 62
    83
100
AcDbLine
 10
132.1345405531553
 20
235.8479799557299
 30
0.0
 11
137.6159827727645
 21
241.3294221753391
 31
0.0
  0
LINE
  5
209
330
6F
100
AcDbEntity
  8
_2-C_ハッチ
  6
Continuous
 62
    83
100
AcDbLine
 10
130.4374842783082
 20
235.8479799557294
 30
0.0
 11
135.9189264979181
 21
241.3294221753393
 31
0.0
  0
LINE
  5
20A
330
6F
100
AcDbEntity
  8
_2-C_ハッチ
  6
Continuous
 62
    83
100
AcDbLine
 10
128.632046833795
 20
235.7395987860646
 30
0.0
 11
134.2218702230701
 21
241.3294221753396
 31
0.0
  0
LINE
  5
20B
330
6F
100
AcDbEntity
  8
_2-C_ハッチ
  6
Continuous
 62
    83
100
AcDbLine
 10
126.7864981348979
 20
235.5911063620157
 30
0.0
 11
132.5248139482213
 21
241.3294221753393
 31
0.0
  0
LINE
  5
20C
330
6F
100
AcDbEntity
  8
_2-C_ハッチ
  6
Continuous
 62
    83
100
AcDbLine
 10
124.9409494360016
 20
235.442613937966
 30
0.0
 11
130.8277576733749
 21
241.3294221753393
 31
0.0
  0
LINE
  5
20D
330
6F
100
AcDbEntity
  8
_2-C_ハッチ
  6
Continuous
 62
    83
100
AcDbLine
 10
123.0954007371044
 20
235.2941215139172
 30
0.0
 11
129.05646915093
 21
241.2551899277429
 31
0.0
  0
LINE
  5
20E
330
6F
100
AcDbEntity
  8
_2-C_ハッチ
  6
Continuous
 62
    83
100
AcDbLine
 10
121.3186260482832
 20
235.2144030999435
 30
0.0
 11
127.2109204520335
 21
241.1066975036937
 31
0.0
  0
LINE
  5
20F
330
6F
100
AcDbEntity
  8
_2-C_ハッチ
  6
Continuous
 62
    83
100
AcDbLine
 10
119.5594823487456
 20
235.1523156752533
 30
0.0
 11
125.3653717531369
 21
240.9582050796446
 31
0.0
  0
LINE
  5
210
330
6F
100
AcDbEntity
  8
_2-C_ハッチ
  6
Continuous
 62
    83
100
AcDbLine
 10
117.800338649208
 20
235.0902282505641
 30
0.0
 11
123.5198230542394
 21
240.8097126555954
 31
0.0
  0
LINE
  5
211
330
6F
100
AcDbEntity
  8
_2-C_ハッチ
  6
Continuous
 62
    83
100
AcDbLine
 10
116.0411949496711
 20
235.0281408258747
 30
0.0
 11
121.6742743553432
 21
240.6612202315467
 31
0.0
  0
LINE
  5
212
330
6F
100
AcDbEntity
  8
_2-C_ハッチ
  6
Continuous
 62
    83
100
AcDbLine
 10
114.2820512501338
 20
234.9660534011848
 30
0.0
 11
119.851859123375
 21
240.535861274426
 31
0.0
  0
LINE
  5
213
330
6F
100
AcDbEntity
  8
_2-C_ハッチ
  6
Continuous
 62
    83
100
AcDbLine
 10
112.5229075505962
 20
234.9039659764956
 30
0.0
 11
118.0927154238372
 21
240.4737738497366
 31
0.0
  0
LINE
  5
214
330
6F
100
AcDbEntity
  8
_2-C_ハッチ
  6
Continuous
 62
    83
100
AcDbLine
 10
110.7485997334177
 20
234.8267144341636
 30
0.0
 11
116.3335717243013
 21
240.4116864250473
 31
0.0
  0
LINE
  5
215
330
6F
100
AcDbEntity
  8
_2-C_ハッチ
  6
Continuous
 62
    83
100
AcDbLine
 10
108.9149987008226
 20
234.6901696764169
 30
0.0
 11
114.5744280247632
 21
240.3495990003575
 31
0.0
  0
LINE
  5
216
330
6F
100
AcDbEntity
  8
_2-C_ハッチ
  6
Continuous
 62
    83
100
AcDbLine
 10
107.0813976682282
 20
234.5536249186709
 30
0.0
 11
112.8152843252252
 21
240.2875115756678
 31
0.0
  0
LINE
  5
217
330
6F
100
AcDbEntity
  8
_2-C_ハッチ
  6
Continuous
 62
    83
100
AcDbLine
 10
105.2477966356354
 20
234.4170801609246
 30
0.0
 11
111.0242832800688
 21
240.193566805358
 31
0.0
  0
LINE
  5
218
330
6F
100
AcDbEntity
  8
_2-C_ハッチ
  6
Continuous
 62
    83
100
AcDbLine
 10
103.4141956030403
 20
234.2805354031779
 30
0.0
 11
109.1906822474739
 21
240.0570220476114
 31
0.0
  0
LINE
  5
219
330
6F
100
AcDbEntity
  8
_2-C_ハッチ
  6
Continuous
 62
    83
100
AcDbLine
 10
101.5805945704458
 20
234.1439906454317
 30
0.0
 11
107.3570812148789
 21
239.9204772898648
 31
0.0
  0
LINE
  5
21A
330
6F
100
AcDbEntity
  8
_2-C_ハッチ
  6
Continuous
 62
    83
100
AcDbLine
 10
99.74699353785297
 20
234.0074458876854
 30
0.0
 11
105.5234801822863
 21
239.7839325321188
 31
0.0
  0
LINE
  5
21B
330
6F
100
AcDbEntity
  8
_2-C_ハッチ
  6
Continuous
 62
    83
100
AcDbLine
 10
97.86379298172393
 20
233.8213016064048
 30
0.0
 11
103.6898791496909
 21
239.6473877743718
 31
0.0
  0
LINE
  5
21C
330
6F
100
AcDbEntity
  8
_2-C_ハッチ
  6
Continuous
 62
    83
100
AcDbLine
 10
95.8403797309457
 20
233.4949446304731
 30
0.0
 11
101.8562781170982
 21
239.5108430166256
 31
0.0
  0
LINE
  5
21D
330
6F
100
AcDbEntity
  8
_2-C_ハッチ
  6
Continuous
 62
    83
100
AcDbLine
 10
93.81696648016458
 20
233.1685876545403
 30
0.0
 11
100.0226770845038
 21
239.3742982588796
 31
0.0
  0
LINE
  5
21E
330
6F
100
AcDbEntity
  8
_2-C_ハッチ
  6
Continuous
 62
    83
100
AcDbLine
 10
91.79355322938379
 20
232.8422306786079
 30
0.0
 11
98.15591297221166
 21
239.2045904214358
 31
0.0
  0
LINE
  5
21F
330
6F
100
AcDbEntity
  8
_2-C_ハッチ
  6
Continuous
 62
    83
100
AcDbLine
 10
90.72040789984686
 20
235.1631978987659
 30
0.0
 11
94.35209873600912
 21
238.7948887349281
 31
0.0
  0
LINE
  5
220
330
6F
100
AcDbEntity
  8
_2-C_ハッチ
  6
Continuous
 62
    83
100
AcDbLine
 10
90.72040789984646
 20
236.8602541736139
 30
0.0
 11
92.45019161790708
 21
238.5900378916745
 31
0.0
  0
LINE
  5
221
330
6F
100
AcDbEntity
  8
_2-C_ハッチ
  6
Continuous
 62
    83
100
AcDbLine
 10
92.07040789984658
 20
234.8161416239173
 30
0.0
 11
96.25400585411114
 21
238.9997395781818
 31
0.0
  0
LINE
  5
222
330
6F
100
AcDbEntity
  8
_2-C_ハッチ
  6
Continuous
 62
    83
100
AcDbLine
 10
206.6704078998465
 20
235.7133712091223
 30
0.0
 11
207.3471387434072
 21
236.3901020526828
 31
0.0
  0
LINE
  5
223
330
6F
100
AcDbEntity
  8
_2-C_ハッチ
  6
Continuous
 62
    83
100
AcDbLine
 10
206.4702747801846
 20
237.2102943643068
 30
0.0
 11
207.3471387434072
 21
238.0871583275294
 31
0.0
  0
LINE
  5
224
330
6F
100
AcDbEntity
  8
_2-C_ハッチ
  6
Continuous
 62
    83
100
AcDbLine
 10
202.8795247107244
 20
235.3166005696949
 30
0.0
 11
203.9704078998467
 21
236.4074837588173
 31
0.0
  0
LINE
  5
225
330
6F
100
AcDbEntity
  8
_2-C_ハッチ
  6
Continuous
 62
    83
100
AcDbLine
 10
204.7732185053366
 20
237.2102943643072
 30
0.0
 11
206.020456263174
 21
238.4575321221446
 31
0.0
  0
LINE
  5
226
330
6F
100
AcDbEntity
  8
_2-C_ハッチ
  6
Continuous
 62
    83
100
AcDbLine
 10
201.3960435452956
 20
235.5301756791146
 30
0.0
 11
204.601823283418
 21
238.7359554172368
 31
0.0
  0
LINE
  5
227
330
6F
100
AcDbEntity
  8
_2-C_ハッチ
  6
Continuous
 62
    83
100
AcDbLine
 10
199.9125623798684
 20
235.743750788534
 30
0.0
 11
203.1831903036635
 21
239.0143787123289
 31
0.0
  0
LINE
  5
228
330
6F
100
AcDbEntity
  8
_2-C_ハッチ
  6
Continuous
 62
    83
100
AcDbLine
 10
198.42908121444
 20
235.9573258979539
 30
0.0
 11
201.7645573239074
 21
239.2928020074213
 31
0.0
  0
LINE
  5
229
330
6F
100
AcDbEntity
  8
_2-C_ハッチ
  6
Continuous
 62
    83
100
AcDbLine
 10
196.9456000490114
 20
236.1709010073737
 30
0.0
 11
200.3459243441514
 21
239.5712253025137
 31
0.0
  0
LINE
  5
22A
330
6F
100
AcDbEntity
  8
_2-C_ハッチ
  6
Continuous
 62
    83
100
AcDbLine
 10
195.4621188835841
 20
236.3844761167929
 30
0.0
 11
198.9272913643966
 21
239.8496485976054
 31
0.0
  0
LINE
  5
22B
330
6F
100
AcDbEntity
  8
_2-C_ハッチ
  6
Continuous
 62
    83
100
AcDbLine
 10
193.9073930017541
 20
236.5268065098113
 30
0.0
 11
197.4932068659888
 21
240.112620374046
 31
0.0
  0
LINE
  5
22C
330
6F
100
AcDbEntity
  8
_2-C_ハッチ
  6
Continuous
 62
    83
100
AcDbLine
 10
192.2381961337018
 20
236.5546659166064
 30
0.0
 11
195.8859419284351
 21
240.2024117113398
 31
0.0
  0
LINE
  5
22D
330
6F
100
AcDbEntity
  8
_2-C_ハッチ
  6
Continuous
 62
    83
100
AcDbLine
 10
190.5689992656497
 20
236.5825253234018
 30
0.0
 11
194.2786769908807
 21
240.2922030486328
 31
0.0
  0
LINE
  5
22E
330
6F
100
AcDbEntity
  8
_2-C_ハッチ
  6
Continuous
 62
    83
100
AcDbLine
 10
188.899802397597
 20
236.6103847301975
 30
0.0
 11
192.6714120533262
 21
240.3819943859266
 31
0.0
  0
LINE
  5
22F
330
6F
100
AcDbEntity
  8
_2-C_ハッチ
  6
Continuous
 62
    83
100
AcDbLine
 10
187.2306055295453
 20
236.6382441369923
 30
0.0
 11
191.0641471157734
 21
240.4717857232203
 31
0.0
  0
LINE
  5
230
330
6F
100
AcDbEntity
  8
_2-C_ハッチ
  6
Continuous
 62
    83
100
AcDbLine
 10
185.5614086614925
 20
236.6661035437879
 30
0.0
 11
189.4568821782181
 21
240.5615770605134
 31
0.0
  0
LINE
  5
231
330
6F
100
AcDbEntity
  8
_2-C_ハッチ
  6
Continuous
 62
    83
100
AcDbLine
 10
183.8922117934397
 20
236.6939629505834
 30
0.0
 11
187.8496172406636
 21
240.6513683978073
 31
0.0
  0
LINE
  5
232
330
6F
100
AcDbEntity
  8
_2-C_ハッチ
  6
Continuous
 62
    83
100
AcDbLine
 10
182.2230149253881
 20
236.7218223573784
 30
0.0
 11
186.2423523031104
 21
240.7411597351006
 31
0.0
  0
LINE
  5
233
330
6F
100
AcDbEntity
  8
_2-C_ハッチ
  6
Continuous
 62
    83
100
AcDbLine
 10
180.5538180573355
 20
236.7496817641742
 30
0.0
 11
184.6350873655555
 21
240.8309510723941
 31
0.0
  0
LINE
  5
234
330
6F
100
AcDbEntity
  8
_2-C_ハッチ
  6
Continuous
 62
    83
100
AcDbLine
 10
178.8846211892824
 20
236.7775411709695
 30
0.0
 11
183.0266223608738
 21
240.9195423425608
 31
0.0
  0
LINE
  5
235
330
6F
100
AcDbEntity
  8
_2-C_ハッチ
  6
Continuous
 62
    83
100
AcDbLine
 10
177.2154243212311
 20
236.8054005777646
 30
0.0
 11
181.3659054734836
 21
240.9558817300172
 31
0.0
  0
LINE
  5
236
330
6F
100
AcDbEntity
  8
_2-C_ハッチ
  6
Continuous
 62
    83
100
AcDbLine
 10
175.5462274531784
 20
236.8332599845603
 30
0.0
 11
179.7051885860917
 21
240.9922211174736
 31
0.0
  0
LINE
  5
237
330
6F
100
AcDbEntity
  8
_2-C_ハッチ
  6
Continuous
 62
    83
100
AcDbLine
 10
173.8770305851266
 20
236.8611193913552
 30
0.0
 11
178.0444716987021
 21
241.0285605049304
 31
0.0
  0
LINE
  5
238
330
6F
100
AcDbEntity
  8
_2-C_ハッチ
  6
Continuous
 62
    83
100
AcDbLine
 10
172.2078337170739
 20
236.8889787981508
 30
0.0
 11
176.3837548113095
 21
241.0648998923864
 31
0.0
  0
LINE
  5
239
330
6F
100
AcDbEntity
  8
_2-C_ハッチ
  6
Continuous
 62
    83
100
AcDbLine
 10
170.5386368490213
 20
236.9168382049465
 30
0.0
 11
174.723037923918
 21
241.1012392798432
 31
0.0
  0
LINE
  5
23A
330
6F
100
AcDbEntity
  8
_2-C_ハッチ
  6
Continuous
 62
    83
100
AcDbLine
 10
169.7168415907851
 20
237.7920992215569
 30
0.0
 11
173.0623210365282
 21
241.1375786673
 31
0.0
  0
LINE
  5
23B
330
6F
100
AcDbEntity
  8
_2-C_ハッチ
  6
Continuous
 62
    83
100
AcDbLine
 10
169.7212610081675
 20
239.4935749137875
 30
0.0
 11
171.4016041491358
 21
241.173918054756
 31
0.0
  0
LINE
  5
23C
330
6F
100
AcDbEntity
  8
_2-C_ハッチ
  6
Continuous
 62
    83
100
AcDbLine
 10
168.7409241838391
 20
240.2102943643074
 30
0.0
 11
169.7408872617444
 21
241.2102574422128
 31
0.0
  0
LINE
  5
23D
330
6F
100
AcDbEntity
  8
_2-C_ハッチ
  6
Continuous
 62
    83
100
AcDbLine
 10
167.0438679089922
 20
240.2102943643073
 30
0.0
 11
168.0438679089928
 21
241.2102943643078
 31
0.0
  0
LINE
  5
23E
330
6F
100
AcDbEntity
  8
_2-C_ハッチ
  6
Continuous
 62
    83
100
AcDbLine
 10
165.346811634144
 20
240.2102943643073
 30
0.0
 11
166.346811634144
 21
241.2102943643073
 31
0.0
  0
LINE
  5
23F
330
6F
100
AcDbEntity
  8
_2-C_ハッチ
  6
Continuous
 62
    83
100
AcDbLine
 10
223.0790193004628
 20
201.2102943643076
 30
0.0
 11
223.220407899846
 21
201.3516829636908
 31
0.0
  0
LINE
  5
240
330
6F
100
AcDbEntity
  8
_2-C_ハッチ
  6
Continuous
 62
    83
100
AcDbLine
 10
221.3819630256163
 20
201.2102943643076
 30
0.0
 11
223.220407899846
 21
203.0487392385374
 31
0.0
  0
LINE
  5
241
330
6F
100
AcDbEntity
  8
_2-C_ハッチ
  6
Continuous
 62
    83
100
AcDbLine
 10
219.6849067507676
 20
201.2102943643073
 30
0.0
 11
223.2204078998463
 21
204.745795513386
 31
0.0
  0
LINE
  5
242
330
6F
100
AcDbEntity
  8
_2-C_ハッチ
  6
Continuous
 62
    83
100
AcDbLine
 10
217.9878504759196
 20
201.2102943643077
 30
0.0
 11
223.220407899846
 21
206.4428517882341
 31
0.0
  0
LINE
  5
243
330
6F
100
AcDbEntity
  8
_2-C_ハッチ
  6
Continuous
 62
    83
100
AcDbLine
 10
216.290794201073
 20
201.2102943643076
 30
0.0
 11
222.290794201073
 21
207.2102943643076
 31
0.0
  0
LINE
  5
244
330
6F
100
AcDbEntity
  8
_2-C_ハッチ
  6
Continuous
 62
    83
100
AcDbLine
 10
214.5937379262244
 20
201.2102943643074
 30
0.0
 11
220.5937379262244
 21
207.2102943643074
 31
0.0
  0
LINE
  5
245
330
6F
100
AcDbEntity
  8
_2-C_ハッチ
  6
Continuous
 62
    83
100
AcDbLine
 10
212.8966816513764
 20
201.2102943643077
 30
0.0
 11
218.8966816513764
 21
207.2102943643077
 31
0.0
  0
LINE
  5
246
330
6F
100
AcDbEntity
  8
_2-C_ハッチ
  6
Continuous
 62
    83
100
AcDbLine
 10
211.1996253765299
 20
201.2102943643077
 30
0.0
 11
217.1996253765297
 21
207.2102943643076
 31
0.0
  0
LINE
  5
247
330
6F
100
AcDbEntity
  8
_2-C_ハッチ
  6
Continuous
 62
    83
100
AcDbLine
 10
209.5025691016812
 20
201.2102943643074
 30
0.0
 11
215.5025691016812
 21
207.2102943643074
 31
0.0
  0
LINE
  5
248
330
6F
100
AcDbEntity
  8
_2-C_ハッチ
  6
Continuous
 62
    83
100
AcDbLine
 10
207.8055128268327
 20
201.2102943643073
 30
0.0
 11
213.8055128268327
 21
207.2102943643073
 31
0.0
  0
LINE
  5
249
330
6F
100
AcDbEntity
  8
_2-C_ハッチ
  6
Continuous
 62
    83
100
AcDbLine
 10
206.1084565519866
 20
201.2102943643078
 30
0.0
 11
212.1084565519866
 21
207.2102943643077
 31
0.0
  0
LINE
  5
24A
330
6F
100
AcDbEntity
  8
_2-C_ハッチ
  6
Continuous
 62
    83
100
AcDbLine
 10
204.411400277138
 20
201.2102943643075
 30
0.0
 11
210.411400277138
 21
207.2102943643074
 31
0.0
  0
LINE
  5
24B
330
6F
100
AcDbEntity
  8
_2-C_ハッチ
  6
Continuous
 62
    83
100
AcDbLine
 10
202.7143440022896
 20
201.2102943643074
 30
0.0
 11
208.7143440022895
 21
207.2102943643073
 31
0.0
  0
LINE
  5
24C
330
6F
100
AcDbEntity
  8
_2-C_ハッチ
  6
Continuous
 62
    83
100
AcDbLine
 10
201.0172877274429
 20
201.2102943643073
 30
0.0
 11
207.0172877274434
 21
207.2102943643078
 31
0.0
  0
LINE
  5
24D
330
6F
100
AcDbEntity
  8
_2-C_ハッチ
  6
Continuous
 62
    83
100
AcDbLine
 10
199.3202314525948
 20
201.2102943643076
 30
0.0
 11
205.3202314525948
 21
207.2102943643075
 31
0.0
  0
LINE
  5
24E
330
6F
100
AcDbEntity
  8
_2-C_ハッチ
  6
Continuous
 62
    83
100
AcDbLine
 10
197.6231751777463
 20
201.2102943643074
 30
0.0
 11
203.6231751777462
 21
207.2102943643074
 31
0.0
  0
LINE
  5
24F
330
6F
100
AcDbEntity
  8
_2-C_ハッチ
  6
Continuous
 62
    83
100
AcDbLine
 10
195.9261189028996
 20
201.2102943643073
 30
0.0
 11
201.9261189028996
 21
207.2102943643073
 31
0.0
  0
LINE
  5
250
330
6F
100
AcDbEntity
  8
_2-C_ハッチ
  6
Continuous
 62
    83
100
AcDbLine
 10
194.2290626280516
 20
201.2102943643076
 30
0.0
 11
200.2290626280515
 21
207.2102943643076
 31
0.0
  0
LINE
  5
251
330
6F
100
AcDbEntity
  8
_2-C_ハッチ
  6
Continuous
 62
    83
100
AcDbLine
 10
192.5320063532031
 20
201.2102943643075
 30
0.0
 11
198.5320063532031
 21
207.2102943643074
 31
0.0
  0
LINE
  5
252
330
6F
100
AcDbEntity
  8
_2-C_ハッチ
  6
Continuous
 62
    83
100
AcDbLine
 10
190.8349500783564
 20
201.2102943643073
 30
0.0
 11
196.8349500783563
 21
207.2102943643073
 31
0.0
  0
LINE
  5
253
330
6F
100
AcDbEntity
  8
_2-C_ハッチ
  6
Continuous
 62
    83
100
AcDbLine
 10
189.1378938035084
 20
201.2102943643077
 30
0.0
 11
195.1378938035082
 21
207.2102943643076
 31
0.0
  0
LINE
  5
254
330
6F
100
AcDbEntity
  8
_2-C_ハッチ
  6
Continuous
 62
    83
100
AcDbLine
 10
187.44083752866
 20
201.2102943643076
 30
0.0
 11
193.4408375286599
 21
207.2102943643075
 31
0.0
  0
LINE
  5
255
330
6F
100
AcDbEntity
  8
_2-C_ハッチ
  6
Continuous
 62
    83
100
AcDbLine
 10
185.7437812538132
 20
201.2102943643074
 30
0.0
 11
191.7437812538132
 21
207.2102943643073
 31
0.0
  0
LINE
  5
256
330
6F
100
AcDbEntity
  8
_2-C_ハッチ
  6
Continuous
 62
    83
100
AcDbLine
 10
184.0467249789647
 20
201.2102943643073
 30
0.0
 11
190.0467249789647
 21
207.2102943643073
 31
0.0
  0
LINE
  5
257
330
6F
100
AcDbEntity
  8
_2-C_ハッチ
  6
Continuous
 62
    83
100
AcDbLine
 10
182.3496687041167
 20
201.2102943643077
 30
0.0
 11
188.3496687041166
 21
207.2102943643076
 31
0.0
  0
LINE
  5
258
330
6F
100
AcDbEntity
  8
_2-C_ハッチ
  6
Continuous
 62
    83
100
AcDbLine
 10
180.6526124292689
 20
201.2102943643074
 30
0.0
 11
186.6526124292689
 21
207.2102943643073
 31
0.0
  0
LINE
  5
259
330
6F
100
AcDbEntity
  8
_2-C_ハッチ
  6
Continuous
 62
    83
100
AcDbLine
 10
178.9555561544215
 20
201.2102943643074
 30
0.0
 11
184.9555561544215
 21
207.2102943643074
 31
0.0
  0
LINE
  5
25A
330
6F
100
AcDbEntity
  8
_2-C_ハッチ
  6
Continuous
 62
    83
100
AcDbLine
 10
177.2584998795735
 20
201.2102943643077
 30
0.0
 11
183.2584998795734
 21
207.2102943643077
 31
0.0
  0
LINE
  5
25B
330
6F
100
AcDbEntity
  8
_2-C_ハッチ
  6
Continuous
 62
    83
100
AcDbLine
 10
175.5614436047257
 20
201.2102943643074
 30
0.0
 11
181.5614436047257
 21
207.2102943643074
 31
0.0
  0
LINE
  5
25C
330
6F
100
AcDbEntity
  8
_2-C_ハッチ
  6
Continuous
 62
    83
100
AcDbLine
 10
173.8643873298784
 20
201.2102943643074
 30
0.0
 11
179.8643873298782
 21
207.2102943643074
 31
0.0
  0
LINE
  5
25D
330
6F
100
AcDbEntity
  8
_2-C_ハッチ
  6
Continuous
 62
    83
100
AcDbLine
 10
172.1673310550303
 20
201.2102943643078
 30
0.0
 11
178.1673310550302
 21
207.2102943643077
 31
0.0
  0
LINE
  5
25E
330
6F
100
AcDbEntity
  8
_2-C_ハッチ
  6
Continuous
 62
    83
100
AcDbLine
 10
170.4702747801825
 20
201.2102943643074
 30
0.0
 11
176.4702747801824
 21
207.2102943643074
 31
0.0
  0
LINE
  5
25F
330
6F
100
AcDbEntity
  8
_2-C_ハッチ
  6
Continuous
 62
    83
100
AcDbLine
 10
168.7732185053351
 20
201.2102943643076
 30
0.0
 11
174.7732185053351
 21
207.2102943643075
 31
0.0
  0
LINE
  5
260
330
6F
100
AcDbEntity
  8
_2-C_ハッチ
  6
Continuous
 62
    83
100
AcDbLine
 10
167.0761622304866
 20
201.2102943643073
 30
0.0
 11
173.076162230487
 21
207.2102943643078
 31
0.0
  0
LINE
  5
261
330
6F
100
AcDbEntity
  8
_2-C_ハッチ
  6
Continuous
 62
    83
100
AcDbLine
 10
165.3791059556403
 20
201.2102943643076
 30
0.0
 11
171.3791059556402
 21
207.2102943643076
 31
0.0
  0
LINE
  5
262
330
6F
100
AcDbEntity
  8
_2-C_ハッチ
  6
Continuous
 62
    83
100
AcDbLine
 10
163.6820496807919
 20
201.2102943643076
 30
0.0
 11
169.6820496807919
 21
207.2102943643076
 31
0.0
  0
LINE
  5
263
330
6F
100
AcDbEntity
  8
_2-C_ハッチ
  6
Continuous
 62
    83
100
AcDbLine
 10
161.9849934059431
 20
201.2102943643072
 30
0.0
 11
167.9849934059431
 21
207.2102943643072
 31
0.0
  0
LINE
  5
264
330
6F
100
AcDbEntity
  8
_2-C_ハッチ
  6
Continuous
 62
    83
100
AcDbLine
 10
160.2879371310968
 20
201.2102943643074
 30
0.0
 11
166.2879371310967
 21
207.2102943643073
 31
0.0
  0
LINE
  5
265
330
6F
100
AcDbEntity
  8
_2-C_ハッチ
  6
Continuous
 62
    83
100
AcDbLine
 10
158.5908808562487
 20
201.2102943643077
 30
0.0
 11
164.5908808562486
 21
207.2102943643076
 31
0.0
  0
LINE
  5
266
330
6F
100
AcDbEntity
  8
_2-C_ハッチ
  6
Continuous
 62
    83
100
AcDbLine
 10
156.8938245813999
 20
201.2102943643073
 30
0.0
 11
162.8938245813999
 21
207.2102943643073
 31
0.0
  0
LINE
  5
267
330
6F
100
AcDbEntity
  8
_2-C_ハッチ
  6
Continuous
 62
    83
100
AcDbLine
 10
155.1967683065536
 20
201.2102943643074
 30
0.0
 11
161.1967683065535
 21
207.2102943643074
 31
0.0
  0
LINE
  5
268
330
6F
100
AcDbEntity
  8
_2-C_ハッチ
  6
Continuous
 62
    83
100
AcDbLine
 10
153.4997120317055
 20
201.2102943643078
 30
0.0
 11
159.4997120317055
 21
207.2102943643077
 31
0.0
  0
LINE
  5
269
330
6F
100
AcDbEntity
  8
_2-C_ハッチ
  6
Continuous
 62
    83
100
AcDbLine
 10
151.8026557568586
 20
201.2102943643074
 30
0.0
 11
157.8026557568586
 21
207.2102943643074
 31
0.0
  0
LINE
  5
26A
330
6F
100
AcDbEntity
  8
_2-C_ハッチ
  6
Continuous
 62
    83
100
AcDbLine
 10
150.1055994820104
 20
201.2102943643075
 30
0.0
 11
156.1055994820103
 21
207.2102943643074
 31
0.0
  0
LINE
  5
26B
330
6F
100
AcDbEntity
  8
_2-C_ハッチ
  6
Continuous
 62
    83
100
AcDbLine
 10
148.4085432071623
 20
201.2102943643078
 30
0.0
 11
154.4085432071623
 21
207.2102943643078
 31
0.0
  0
LINE
  5
26C
330
6F
100
AcDbEntity
  8
_2-C_ハッチ
  6
Continuous
 62
    83
100
AcDbLine
 10
146.7114869323154
 20
201.2102943643075
 30
0.0
 11
152.7114869323153
 21
207.2102943643074
 31
0.0
  0
LINE
  5
26D
330
6F
100
AcDbEntity
  8
_2-C_ハッチ
  6
Continuous
 62
    83
100
AcDbLine
 10
145.0144306574672
 20
201.2102943643076
 30
0.0
 11
151.0144306574671
 21
207.2102943643075
 31
0.0
  0
LINE
  5
26E
330
6F
100
AcDbEntity
  8
_2-C_ハッチ
  6
Continuous
 62
    83
100
AcDbLine
 10
143.3173743826186
 20
201.2102943643074
 30
0.0
 11
149.3173743826191
 21
207.2102943643078
 31
0.0
  0
LINE
  5
26F
330
6F
100
AcDbEntity
  8
_2-C_ハッチ
  6
Continuous
 62
    83
100
AcDbLine
 10
141.6203181077721
 20
201.2102943643076
 30
0.0
 11
147.6203181077721
 21
207.2102943643075
 31
0.0
  0
LINE
  5
270
330
6F
100
AcDbEntity
  8
_2-C_ハッチ
  6
Continuous
 62
    83
100
AcDbLine
 10
139.9232618329239
 20
201.2102943643077
 30
0.0
 11
145.9232618329239
 21
207.2102943643076
 31
0.0
  0
LINE
  5
271
330
6F
100
AcDbEntity
  8
_2-C_ハッチ
  6
Continuous
 62
    83
100
AcDbLine
 10
138.226205558076
 20
201.2102943643072
 30
0.0
 11
144.226205558076
 21
207.2102943643072
 31
0.0
  0
LINE
  5
272
330
6F
100
AcDbEntity
  8
_2-C_ハッチ
  6
Continuous
 62
    83
100
AcDbLine
 10
136.5291492832287
 20
201.2102943643074
 30
0.0
 11
142.5291492832287
 21
207.2102943643073
 31
0.0
  0
LINE
  5
273
330
6F
100
AcDbEntity
  8
_2-C_ハッチ
  6
Continuous
 62
    83
100
AcDbLine
 10
134.8320930083807
 20
201.2102943643077
 30
0.0
 11
140.8320930083806
 21
207.2102943643077
 31
0.0
  0
LINE
  5
274
330
6F
100
AcDbEntity
  8
_2-C_ハッチ
  6
Continuous
 62
    83
100
AcDbLine
 10
133.1350367335338
 20
201.2102943643073
 30
0.0
 11
139.1350367335337
 21
207.2102943643073
 31
0.0
  0
LINE
  5
275
330
6F
100
AcDbEntity
  8
_2-C_ハッチ
  6
Continuous
 62
    83
100
AcDbLine
 10
131.4379804586856
 20
201.2102943643075
 30
0.0
 11
137.4379804586855
 21
207.2102943643074
 31
0.0
  0
LINE
  5
276
330
6F
100
AcDbEntity
  8
_2-C_ハッチ
  6
Continuous
 62
    83
100
AcDbLine
 10
129.7409241838376
 20
201.2102943643078
 30
0.0
 11
135.7409241838374
 21
207.2102943643078
 31
0.0
  0
LINE
  5
277
330
6F
100
AcDbEntity
  8
_2-C_ハッチ
  6
Continuous
 62
    83
100
AcDbLine
 10
128.0438679089906
 20
201.2102943643074
 30
0.0
 11
134.0438679089905
 21
207.2102943643073
 31
0.0
  0
LINE
  5
278
330
6F
100
AcDbEntity
  8
_2-C_ハッチ
  6
Continuous
 62
    83
100
AcDbLine
 10
126.3468116341424
 20
201.2102943643076
 30
0.0
 11
132.3468116341423
 21
207.2102943643075
 31
0.0
  0
LINE
  5
279
330
6F
100
AcDbEntity
  8
_2-C_ハッチ
  6
Continuous
 62
    83
100
AcDbLine
 10
124.6497553592938
 20
201.2102943643074
 30
0.0
 11
130.6497553592943
 21
207.2102943643078
 31
0.0
  0
LINE
  5
27A
330
6F
100
AcDbEntity
  8
_2-C_ハッチ
  6
Continuous
 62
    83
100
AcDbLine
 10
122.9526990844473
 20
201.2102943643074
 30
0.0
 11
128.9526990844473
 21
207.2102943643074
 31
0.0
  0
LINE
  5
27B
330
6F
100
AcDbEntity
  8
_2-C_ハッチ
  6
Continuous
 62
    83
100
AcDbLine
 10
121.2556428095992
 20
201.2102943643076
 30
0.0
 11
127.2556428095991
 21
207.2102943643076
 31
0.0
  0
LINE
  5
27C
330
6F
100
AcDbEntity
  8
_2-C_ハッチ
  6
Continuous
 62
    83
100
AcDbLine
 10
119.5585865347521
 20
201.2102943643072
 30
0.0
 11
125.5585865347522
 21
207.2102943643072
 31
0.0
  0
LINE
  5
27D
330
6F
100
AcDbEntity
  8
_2-C_ハッチ
  6
Continuous
 62
    83
100
AcDbLine
 10
117.8615302599041
 20
201.2102943643075
 30
0.0
 11
123.8615302599041
 21
207.2102943643074
 31
0.0
  0
LINE
  5
27E
330
6F
100
AcDbEntity
  8
_2-C_ハッチ
  6
Continuous
 62
    83
100
AcDbLine
 10
116.164473985056
 20
201.2102943643077
 30
0.0
 11
122.1644739850559
 21
207.2102943643076
 31
0.0
  0
LINE
  5
27F
330
6F
100
AcDbEntity
  8
_2-C_ハッチ
  6
Continuous
 62
    83
100
AcDbLine
 10
114.4674177102089
 20
201.2102943643073
 30
0.0
 11
120.4674177102089
 21
207.2102943643073
 31
0.0
  0
LINE
  5
280
330
6F
100
AcDbEntity
  8
_2-C_ハッチ
  6
Continuous
 62
    83
100
AcDbLine
 10
112.7703614353608
 20
201.2102943643074
 30
0.0
 11
118.7703614353607
 21
207.2102943643074
 31
0.0
  0
LINE
  5
281
330
6F
100
AcDbEntity
  8
_2-C_ハッチ
  6
Continuous
 62
    83
100
AcDbLine
 10
111.0733051605128
 20
201.2102943643078
 30
0.0
 11
117.0733051605127
 21
207.2102943643077
 31
0.0
  0
LINE
  5
282
330
6F
100
AcDbEntity
  8
_2-C_ハッチ
  6
Continuous
 62
    83
100
AcDbLine
 10
109.3762488856657
 20
201.2102943643073
 30
0.0
 11
115.3762488856657
 21
207.2102943643073
 31
0.0
  0
LINE
  5
283
330
6F
100
AcDbEntity
  8
_2-C_ハッチ
  6
Continuous
 62
    83
100
AcDbLine
 10
107.6791926108175
 20
201.2102943643075
 30
0.0
 11
113.6791926108175
 21
207.2102943643075
 31
0.0
  0
LINE
  5
284
330
6F
100
AcDbEntity
  8
_2-C_ハッチ
  6
Continuous
 62
    83
100
AcDbLine
 10
105.98213633597
 20
201.2102943643074
 30
0.0
 11
111.9821363359704
 21
207.2102943643078
 31
0.0
  0
LINE
  5
285
330
6F
100
AcDbEntity
  8
_2-C_ハッチ
  6
Continuous
 62
    83
100
AcDbLine
 10
104.2850800611225
 20
201.2102943643073
 30
0.0
 11
110.2850800611225
 21
207.2102943643073
 31
0.0
  0
LINE
  5
286
330
6F
100
AcDbEntity
  8
_2-C_ハッチ
  6
Continuous
 62
    83
100
AcDbLine
 10
102.5880237862744
 20
201.2102943643076
 30
0.0
 11
108.5880237862744
 21
207.2102943643076
 31
0.0
  0
LINE
  5
287
330
6F
100
AcDbEntity
  8
_2-C_ハッチ
  6
Continuous
 62
    83
100
AcDbLine
 10
100.8909675114268
 20
201.2102943643075
 30
0.0
 11
106.8909675114268
 21
207.2102943643074
 31
0.0
  0
LINE
  5
288
330
6F
100
AcDbEntity
  8
_2-C_ハッチ
  6
Continuous
 62
    83
100
AcDbLine
 10
99.19391123657931
 20
201.2102943643074
 30
0.0
 11
105.1939112365792
 21
207.2102943643073
 31
0.0
  0
LINE
  5
289
330
6F
100
AcDbEntity
  8
_2-C_ハッチ
  6
Continuous
 62
    83
100
AcDbLine
 10
97.49685496173125
 20
201.2102943643077
 30
0.0
 11
103.4968549617311
 21
207.2102943643076
 31
0.0
  0
LINE
  5
28A
330
6F
100
AcDbEntity
  8
_2-C_ハッチ
  6
Continuous
 62
    83
100
AcDbLine
 10
95.79979868688411
 20
201.2102943643071
 30
0.0
 11
101.799798686884
 21
207.210294364307
 31
0.0
  0
LINE
  5
28B
330
6F
100
AcDbEntity
  8
_2-C_ハッチ
  6
Continuous
 62
    83
100
AcDbLine
 10
94.10274241203604
 20
201.2102943643074
 30
0.0
 11
100.102742412036
 21
207.2102943643074
 31
0.0
  0
LINE
  5
28C
330
6F
100
AcDbEntity
  8
_2-C_ハッチ
  6
Continuous
 62
    83
100
AcDbLine
 10
92.40568613718799
 20
201.2102943643077
 30
0.0
 11
98.40568613718795
 21
207.2102943643077
 31
0.0
  0
LINE
  5
28D
330
6F
100
AcDbEntity
  8
_2-C_ハッチ
  6
Continuous
 62
    83
100
AcDbLine
 10
92.07040789984672
 20
202.572072401813
 30
0.0
 11
96.70862986234086
 21
207.2102943643071
 31
0.0
  0
LINE
  5
28E
330
6F
100
AcDbEntity
  8
_2-C_ハッチ
  6
Continuous
 62
    83
100
AcDbLine
 10
92.07040789984644
 20
204.2691286766611
 30
0.0
 11
95.0115735874928
 21
207.2102943643074
 31
0.0
  0
LINE
  5
28F
330
6F
100
AcDbEntity
  8
_2-C_ハッチ
  6
Continuous
 62
    83
100
AcDbLine
 10
92.0704078998461
 20
205.9661849515092
 30
0.0
 11
93.31451731264472
 21
207.2102943643078
 31
0.0
  0
LINE
  5
290
330
6F
100
AcDbEntity
  8
_2-C_ハッチ
  6
Continuous
 62
    83
100
AcDbLine
 10
222.5937379262444
 20
209.2102943643273
 30
0.0
 11
223.2204078998461
 21
209.8369643379291
 31
0.0
  0
LINE
  5
291
330
6F
100
AcDbEntity
  8
_2-C_ハッチ
  6
Continuous
 62
    83
100
AcDbLine
 10
220.8966816513977
 20
209.2102943643273
 30
0.0
 11
223.220407899846
 21
211.5340206127756
 31
0.0
  0
LINE
  5
292
330
6F
100
AcDbEntity
  8
_2-C_ハッチ
  6
Continuous
 62
    83
100
AcDbLine
 10
219.1996253765496
 20
209.2102943643276
 30
0.0
 11
222.1996253765495
 21
212.2102943643273
 31
0.0
  0
LINE
  5
293
330
6F
100
AcDbEntity
  8
_2-C_ハッチ
  6
Continuous
 62
    83
100
AcDbLine
 10
217.5025691017012
 20
209.2102943643275
 30
0.0
 11
220.5025691017014
 21
212.2102943643277
 31
0.0
  0
LINE
  5
294
330
6F
100
AcDbEntity
  8
_2-C_ハッチ
  6
Continuous
 62
    83
100
AcDbLine
 10
215.8055128268546
 20
209.2102943643274
 30
0.0
 11
218.8055128268543
 21
212.2102943643271
 31
0.0
  0
LINE
  5
295
330
6F
100
AcDbEntity
  8
_2-C_ハッチ
  6
Continuous
 62
    83
100
AcDbLine
 10
214.1084565520063
 20
209.2102943643275
 30
0.0
 11
217.1084565520061
 21
212.2102943643273
 31
0.0
  0
LINE
  5
296
330
6F
100
AcDbEntity
  8
_2-C_ハッチ
  6
Continuous
 62
    83
100
AcDbLine
 10
212.4114002771581
 20
209.2102943643276
 30
0.0
 11
215.4114002771582
 21
212.2102943643277
 31
0.0
  0
LINE
  5
297
330
6F
100
AcDbEntity
  8
_2-C_ハッチ
  6
Continuous
 62
    83
100
AcDbLine
 10
210.7143440023115
 20
209.2102943643276
 30
0.0
 11
213.7143440023111
 21
212.2102943643272
 31
0.0
  0
LINE
  5
298
330
6F
100
AcDbEntity
  8
_2-C_ハッチ
  6
Continuous
 62
    83
100
AcDbLine
 10
209.017287727463
 20
209.2102943643274
 30
0.0
 11
212.0172877274628
 21
212.2102943643272
 31
0.0
  0
LINE
  5
299
330
6F
100
AcDbEntity
  8
_2-C_ハッチ
  6
Continuous
 62
    83
100
AcDbLine
 10
207.3202314526144
 20
209.2102943643272
 30
0.0
 11
210.3202314526147
 21
212.2102943643275
 31
0.0
  0
LINE
  5
29A
330
6F
100
AcDbEntity
  8
_2-C_ハッチ
  6
Continuous
 62
    83
100
AcDbLine
 10
206.5204078998463
 20
210.1075270864056
 30
0.0
 11
208.623175177768
 21
212.2102943643273
 31
0.0
  0
LINE
  5
29B
330
6F
100
AcDbEntity
  8
_2-C_ハッチ
  6
Continuous
 62
    83
100
AcDbLine
 10
206.5204078998468
 20
211.8045833612545
 30
0.0
 11
206.9261189029194
 21
212.2102943643272
 31
0.0
  0
LINE
  5
29C
330
6F
100
AcDbEntity
  8
_2-C_ハッチ
  6
Continuous
 62
    83
100
AcDbLine
 10
88.5262922132764
 20
209.2102943643274
 30
0.0
 11
89.37040789984626
 21
210.0544100508973
 31
0.0
  0
LINE
  5
29D
330
6F
100
AcDbEntity
  8
_2-C_ハッチ
  6
Continuous
 62
    83
100
AcDbLine
 10
86.82923593842787
 20
209.2102943643272
 30
0.0
 11
89.37040789984678
 21
211.7514663257461
 31
0.0
  0
LINE
  5
29E
330
6F
100
AcDbEntity
  8
_2-C_ハッチ
  6
Continuous
 62
    83
100
AcDbLine
 10
85.13217966357927
 20
209.210294364327
 30
0.0
 11
88.13217966357953
 21
212.2102943643273
 31
0.0
  0
LINE
  5
29F
330
6F
100
AcDbEntity
  8
_2-C_ハッチ
  6
Continuous
 62
    83
100
AcDbLine
 10
83.4351233887332
 20
209.2102943643275
 30
0.0
 11
86.43512338873346
 21
212.2102943643277
 31
0.0
  0
LINE
  5
2A0
330
6F
100
AcDbEntity
  8
_2-C_ハッチ
  6
Continuous
 62
    83
100
AcDbLine
 10
81.7380671138846
 20
209.2102943643272
 30
0.0
 11
84.7380671138843
 21
212.210294364327
 31
0.0
  0
LINE
  5
2A1
330
6F
100
AcDbEntity
  8
_2-C_ハッチ
  6
Continuous
 62
    83
100
AcDbLine
 10
80.04101083903698
 20
209.2102943643271
 30
0.0
 11
83.04101083903724
 21
212.2102943643274
 31
0.0
  0
LINE
  5
2A2
330
6F
100
AcDbEntity
  8
_2-C_ハッチ
  6
Continuous
 62
    83
100
AcDbLine
 10
78.34395456418956
 20
209.2102943643272
 30
0.0
 11
81.34395456418941
 21
212.210294364327
 31
0.0
  0
LINE
  5
2A3
330
6F
100
AcDbEntity
  8
_2-C_ハッチ
  6
Continuous
 62
    83
100
AcDbLine
 10
76.6468982893414
 20
209.2102943643273
 30
0.0
 11
79.64689828934109
 21
212.210294364327
 31
0.0
  0
LINE
  5
2A4
330
6F
100
AcDbEntity
  8
_2-C_ハッチ
  6
Continuous
 62
    83
100
AcDbLine
 10
74.94984201449472
 20
209.2102943643272
 30
0.0
 11
77.94984201449501
 21
212.2102943643275
 31
0.0
  0
LINE
  5
2A5
330
6F
100
AcDbEntity
  8
_2-C_ハッチ
  6
Continuous
 62
    83
100
AcDbLine
 10
73.25278573964613
 20
209.210294364327
 30
0.0
 11
76.25278573964592
 21
212.2102943643267
 31
0.0
  0
LINE
  5
2A6
330
6F
100
AcDbEntity
  8
_2-C_ハッチ
  6
Continuous
 62
    83
100
AcDbLine
 10
72.82040789984701
 20
210.4749727993761
 30
0.0
 11
74.55572946479789
 21
212.2102943643271
 31
0.0
  0
LINE
  5
2A7
330
6F
100
AcDbEntity
  8
_2-C_ハッチ
  6
Continuous
 62
    83
100
AcDbLine
 10
72.82040789984669
 20
212.1720290742224
 30
0.0
 11
72.85867318995179
 21
212.2102943643275
 31
0.0
  0
LINE
  5
2A8
330
6F
100
AcDbEntity
  8
_2-6_建具
  6
Continuous
 62
     4
100
AcDbLine
 10
207.2204078998466
 20
234.0995887159677
 30
0.0
 11
207.2204078998466
 21
222.8361494505073
 31
0.0
  0
LINE
  5
2A9
330
6F
100
AcDbEntity
  8
_2-E_文字
  6
Continuous
 62
     4
100
AcDbLine
 10
78.27972861706723
 20
222.4724030509538
 30
0.0
 11
62.27972861706724
 21
215.2724030509538
 31
0.0
  0
LINE
  5
2AA
330
6F
100
AcDbEntity
  8
_2-E_文字
  6
Continuous
 62
     4
100
AcDbLine
 10
62.27972861706724
 20
222.4724030509538
 30
0.0
 11
62.27972861706724
 21
215.2724030509538
 31
0.0
  0
LINE
  5
2AB
330
6F
100
AcDbEntity
  8
_2-E_文字
  6
Continuous
 62
     4
100
AcDbLine
 10
78.27972861706723
 20
222.4724030509538
 30
0.0
 11
62.27972861706724
 21
222.4724030509538
 31
0.0
  0
LINE
  5
2AC
330
6F
100
AcDbEntity
  8
_2-E_文字
  6
Continuous
 62
     4
100
AcDbLine
 10
217.7610871826261
 20
222.4724030509538
 30
0.0
 11
233.7610871826261
 21
215.2724030509538
 31
0.0
  0
LINE
  5
2AD
330
6F
100
AcDbEntity
  8
_2-E_文字
  6
Continuous
 62
     4
100
AcDbLine
 10
233.7610871826261
 20
222.4724030509538
 30
0.0
 11
233.7610871826261
 21
215.2724030509538
 31
0.0
  0
LINE
  5
2AE
330
6F
100
AcDbEntity
  8
_2-E_文字
  6
Continuous
 62
     4
100
AcDbLine
 10
217.7610871826261
 20
222.4724030509538
 30
0.0
 11
233.7610871826261
 21
222.4724030509538
 31
0.0
  0
LINE
  5
2AF
330
6F
100
AcDbEntity
  8
_2-E_文字
  6
Continuous
 62
     4
100
AcDbLine
 10
167.6139454694351
 20
262.0783172636064
 30
0.0
 11
183.6139454694351
 21
262.0783172636064
 31
0.0
  0
LINE
  5
2B0
330
6F
100
AcDbEntity
  8
_2-E_文字
  6
Continuous
 62
     4
100
AcDbLine
 10
167.6139454694351
 20
262.0783172636064
 30
0.0
 11
183.6139454694351
 21
254.8783172636065
 31
0.0
  0
LINE
  5
2B1
330
6F
100
AcDbEntity
  8
_2-E_文字
  6
Continuous
 62
     4
100
AcDbLine
 10
183.6139454694351
 20
262.0783172636064
 30
0.0
 11
183.6139454694351
 21
254.8783172636065
 31
0.0
  0
LINE
  5
2B2
330
6F
100
AcDbEntity
  8
_2-E_文字
  6
Continuous
 62
     4
100
AcDbLine
 10
128.4268703302582
 20
262.0783172636064
 30
0.0
 11
112.4268703302582
 21
254.8783172636065
 31
0.0
  0
LINE
  5
2B3
330
6F
100
AcDbEntity
  8
_2-E_文字
  6
Continuous
 62
     4
100
AcDbLine
 10
112.4268703302582
 20
262.0783172636064
 30
0.0
 11
112.4268703302582
 21
254.8783172636065
 31
0.0
  0
LINE
  5
2B4
330
6F
100
AcDbEntity
  8
_2-E_文字
  6
Continuous
 62
     4
100
AcDbLine
 10
128.4268703302582
 20
262.0783172636064
 30
0.0
 11
112.4268703302582
 21
262.0783172636064
 31
0.0
  0
CIRCLE
  5
2B5
330
6F
100
AcDbEntity
  8
_2-D_寸法
  6
Continuous
 62
     4
100
AcDbCircle
 10
245.0556715384448
 20
165.2102943643073
 30
0.0
 40
0.5999999999999999
  0
LINE
  5
2B6
330
6F
100
AcDbEntity
  8
_2-6_建具
  6
Continuous
 62
     4
100
AcDbLine
 10
205.8204078998466
 20
234.0995887159677
 30
0.0
 11
205.8204078998466
 21
222.8361494505073
 31
0.0
  0
LINE
  5
2B7
330
6F
100
AcDbEntity
  8
_2-6_建具
  6
Continuous
 62
     4
100
AcDbLine
 10
206.5204078998466
 20
233.6845270564892
 30
0.0
 11
206.5204078998466
 21
223.2512111099073
 31
0.0
  0
LINE
  5
2B8
330
6F
100
AcDbEntity
  8
_2-6_建具
  6
Continuous
 62
     4
100
AcDbLine
 10
224.9204078998464
 20
186.5102943643073
 30
0.0
 11
224.9204078998464
 21
185.2102943643073
 31
0.0
  0
LINE
  5
2B9
330
6F
100
AcDbEntity
  8
_2-6_建具
  6
Continuous
 62
     4
100
AcDbLine
 10
224.9204078998464
 20
185.9102943643073
 30
0.0
 11
226.3204078998464
 21
185.6702943643073
 31
0.0
  0
LINE
  5
2BA
330
6F
100
AcDbEntity
  8
_2-6_建具
  6
Continuous
 62
     4
100
AcDbLine
 10
226.3204078998464
 20
185.6702943643073
 30
0.0
 11
226.3204078998464
 21
185.2102943643073
 31
0.0
  0
LINE
  5
2BB
330
6F
100
AcDbEntity
  8
_2-6_建具
  6
Continuous
 62
     4
100
AcDbLine
 10
225.3004078998464
 20
185.8502943643073
 30
0.0
 11
225.3004078998464
 21
186.2102943643073
 31
0.0
  0
LINE
  5
2BC
330
6F
100
AcDbEntity
  8
_2-6_建具
  6
Continuous
 62
     4
100
AcDbLine
 10
225.9404078998464
 20
185.7302943643073
 30
0.0
 11
225.9404078998464
 21
186.2102943643073
 31
0.0
  0
LINE
  5
2BD
330
6F
100
AcDbEntity
  8
_2-6_建具
  6
Continuous
 62
     4
100
AcDbLine
 10
225.0804078998464
 20
186.1102943643073
 30
0.0
 11
225.5204078998464
 21
186.1102943643073
 31
0.0
  0
LINE
  5
2BE
330
6F
100
AcDbEntity
  8
_2-6_建具
  6
Continuous
 62
     4
100
AcDbLine
 10
225.5204078998464
 20
186.1102943643073
 30
0.0
 11
225.5204078998464
 21
187.3102943643073
 31
0.0
  0
LINE
  5
2BF
330
6F
100
AcDbEntity
  8
_2-6_建具
  6
Continuous
 62
     4
100
AcDbLine
 10
225.5204078998464
 20
187.3102943643073
 30
0.0
 11
225.0804078998464
 21
187.3102943643073
 31
0.0
  0
LINE
  5
2C0
330
6F
100
AcDbEntity
  8
_2-6_建具
  6
Continuous
 62
     4
100
AcDbLine
 10
225.0804078998464
 20
187.3102943643073
 30
0.0
 11
225.0804078998464
 21
186.1102943643073
 31
0.0
  0
LINE
  5
2C1
330
6F
100
AcDbEntity
  8
_2-6_建具
  6
Continuous
 62
     4
100
AcDbLine
 10
225.7204078998465
 20
186.1102943643073
 30
0.0
 11
226.1604078998465
 21
186.1102943643073
 31
0.0
  0
LINE
  5
2C2
330
6F
100
AcDbEntity
  8
_2-6_建具
  6
Continuous
 62
     4
100
AcDbLine
 10
226.1604078998465
 20
186.1102943643073
 30
0.0
 11
226.1604078998465
 21
187.3102943643073
 31
0.0
  0
LINE
  5
2C3
330
6F
100
AcDbEntity
  8
_2-6_建具
  6
Continuous
 62
     4
100
AcDbLine
 10
226.1604078998465
 20
187.3102943643073
 30
0.0
 11
225.7204078998465
 21
187.3102943643073
 31
0.0
  0
LINE
  5
2C4
330
6F
100
AcDbEntity
  8
_2-6_建具
  6
Continuous
 62
     4
100
AcDbLine
 10
225.7204078998465
 20
187.3102943643073
 30
0.0
 11
225.7204078998465
 21
186.1102943643073
 31
0.0
  0
LINE
  5
2C5
330
6F
100
AcDbEntity
  8
_2-6_建具
  6
Continuous
 62
     4
100
AcDbLine
 10
225.3004078998464
 20
187.3102943643073
 30
0.0
 11
225.3004078998464
 21
196.9102943643072
 31
0.0
  0
LINE
  5
2C6
330
6F
100
AcDbEntity
  8
_2-6_建具
  6
Continuous
 62
     4
100
AcDbLine
 10
225.9404078998464
 20
187.3102943643073
 30
0.0
 11
225.9404078998464
 21
196.9102943643072
 31
0.0
  0
LINE
  5
2C7
330
6F
100
AcDbEntity
  8
_2-6_建具
  6
Continuous
 62
     4
100
AcDbLine
 10
224.9204078998464
 20
197.5102943643073
 30
0.0
 11
224.9204078998464
 21
198.2102943643073
 31
0.0
  0
LINE
  5
2C8
330
6F
100
AcDbEntity
  8
_2-6_建具
  6
Continuous
 62
     4
100
AcDbLine
 10
224.9204078998464
 20
197.8702943643073
 30
0.0
 11
226.3204078998464
 21
197.8702943643073
 31
0.0
  0
LINE
  5
2C9
330
6F
100
AcDbEntity
  8
_2-6_建具
  6
Continuous
 62
     4
100
AcDbLine
 10
226.3204078998464
 20
197.5102943643073
 30
0.0
 11
226.3204078998464
 21
198.2102943643073
 31
0.0
  0
LINE
  5
2CA
330
6F
100
AcDbEntity
  8
_2-6_建具
  6
Continuous
 62
     4
100
AcDbLine
 10
225.6204078998464
 20
197.5102943643073
 30
0.0
 11
225.6204078998464
 21
197.8702943643073
 31
0.0
  0
LINE
  5
2CB
330
6F
100
AcDbEntity
  8
_2-6_建具
  6
Continuous
 62
     4
100
AcDbLine
 10
225.0804078998464
 20
196.9102943643072
 30
0.0
 11
225.5204078998464
 21
196.9102943643072
 31
0.0
  0
LINE
  5
2CC
330
6F
100
AcDbEntity
  8
_2-6_建具
  6
Continuous
 62
     4
100
AcDbLine
 10
225.5204078998464
 20
196.9102943643072
 30
0.0
 11
225.5204078998464
 21
197.7102943643073
 31
0.0
  0
LINE
  5
2CD
330
6F
100
AcDbEntity
  8
_2-6_建具
  6
Continuous
 62
     4
100
AcDbLine
 10
225.5204078998464
 20
197.7102943643073
 30
0.0
 11
225.0804078998464
 21
197.7102943643073
 31
0.0
  0
LINE
  5
2CE
330
6F
100
AcDbEntity
  8
_2-6_建具
  6
Continuous
 62
     4
100
AcDbLine
 10
225.0804078998464
 20
197.7102943643073
 30
0.0
 11
225.0804078998464
 21
196.9102943643072
 31
0.0
  0
LINE
  5
2CF
330
6F
100
AcDbEntity
  8
_2-6_建具
  6
Continuous
 62
     4
100
AcDbLine
 10
225.7204078998465
 20
196.9102943643072
 30
0.0
 11
226.1604078998465
 21
196.9102943643072
 31
0.0
  0
LINE
  5
2D0
330
6F
100
AcDbEntity
  8
_2-6_建具
  6
Continuous
 62
     4
100
AcDbLine
 10
226.1604078998465
 20
196.9102943643072
 30
0.0
 11
226.1604078998465
 21
197.7102943643073
 31
0.0
  0
LINE
  5
2D1
330
6F
100
AcDbEntity
  8
_2-6_建具
  6
Continuous
 62
     4
100
AcDbLine
 10
226.1604078998465
 20
197.7102943643073
 30
0.0
 11
225.7204078998465
 21
197.7102943643073
 31
0.0
  0
LINE
  5
2D2
330
6F
100
AcDbEntity
  8
_2-6_建具
  6
Continuous
 62
     4
100
AcDbLine
 10
225.7204078998465
 20
197.7102943643073
 30
0.0
 11
225.7204078998465
 21
196.9102943643072
 31
0.0
  0
LINE
  5
2D3
330
6F
100
AcDbEntity
  8
_2-6_建具
  6
Continuous
 62
     4
100
AcDbLine
 10
69.42040789984668
 20
163.7102943643073
 30
0.0
 11
69.42040789984668
 21
201.2102943643073
 31
0.0
  0
LINE
  5
2D4
330
6F
100
AcDbEntity
  8
_2-6_建具
  6
Continuous
 62
     4
100
AcDbLine
 10
70.0204078998467
 20
163.7102943643073
 30
0.0
 11
70.0204078998467
 21
201.2102943643073
 31
0.0
  0
LINE
  5
2D5
330
6F
100
AcDbEntity
  8
_2-6_建具
  6
Continuous
 62
     4
100
AcDbLine
 10
72.22040789984669
 20
201.2102943643073
 30
0.0
 11
72.22040789984669
 21
163.7102943643073
 31
0.0
  0
LINE
  5
2D6
330
6F
100
AcDbEntity
  8
_2-6_建具
  6
Continuous
 62
     4
100
AcDbLine
 10
71.02040789984666
 20
201.2102943643073
 30
0.0
 11
71.02040789984666
 21
163.7102943643073
 31
0.0
  0
LINE
  5
2D7
330
6F
100
AcDbEntity
  8
_2-6_建具
  6
Continuous
 62
     4
100
AcDbLine
 10
71.62040789984665
 20
201.2102943643073
 30
0.0
 11
71.62040789984665
 21
163.7102943643073
 31
0.0
  0
LINE
  5
2D8
330
6F
100
AcDbEntity
  8
_2-6_建具
  6
Continuous
 62
     4
100
AcDbLine
 10
91.32040789984658
 20
201.2102943643073
 30
0.0
 11
91.32040789984658
 21
165.2102943643073
 31
0.0
  0
LINE
  5
2D9
330
6F
100
AcDbEntity
  8
_2-6_建具
  6
Continuous
 62
     4
100
AcDbLine
 10
90.12040789984656
 20
201.2102943643073
 30
0.0
 11
90.12040789984656
 21
165.2102943643073
 31
0.0
  0
LINE
  5
2DA
330
6F
100
AcDbEntity
  8
_2-6_建具
  6
Continuous
 62
     4
100
AcDbLine
 10
90.72040789984654
 20
201.2102943643073
 30
0.0
 11
90.72040789984654
 21
165.2102943643073
 31
0.0
  0
LINE
  5
2DB
330
6F
100
AcDbEntity
  8
_2-6_建具
  6
Continuous
 62
     4
100
AcDbLine
 10
166.5204078998467
 20
201.2102943643073
 30
0.0
 11
166.5204078998467
 21
165.2102943643073
 31
0.0
  0
LINE
  5
2DC
330
6F
100
AcDbEntity
  8
_2-6_建具
  6
Continuous
 62
     4
100
AcDbLine
 10
167.1204078998468
 20
201.2102943643073
 30
0.0
 11
167.1204078998468
 21
165.2102943643073
 31
0.0
  0
LINE
  5
2DD
330
6F
100
AcDbEntity
  8
_2-6_建具
  6
Continuous
 62
     4
100
AcDbLine
 10
167.7204078998468
 20
201.2102943643073
 30
0.0
 11
167.7204078998468
 21
165.2102943643073
 31
0.0
  0
LINE
  5
2DE
330
6F
100
AcDbEntity
  8
_2-E_文字
  6
Continuous
 62
     4
100
AcDbLine
 10
271.8950627346093
 20
97.60606060606058
 30
0.0
 11
271.8950627346093
 21
101.6060606060605
 31
0.0
  0
LINE
  5
2DF
330
6F
100
AcDbEntity
  8
_2-E_文字
  6
Continuous
 62
     4
100
AcDbLine
 10
271.8950627346093
 20
101.6060606060605
 30
0.0
 11
240.9871855345978
 21
101.6060606060605
 31
0.0
  0
LINE
  5
2E0
330
6F
100
AcDbEntity
  8
_2-E_文字
  6
Continuous
 62
     4
100
AcDbLine
 10
240.9871855345978
 20
101.6060606060605
 30
0.0
 11
240.9871855345978
 21
97.60606060606058
 31
0.0
  0
LINE
  5
2E1
330
6F
100
AcDbEntity
  8
_2-E_文字
  6
Continuous
 62
     4
100
AcDbLine
 10
240.9871855345978
 20
97.60606060606058
 30
0.0
 11
271.8950627346093
 21
97.60606060606058
 31
0.0
  0
LINE
  5
2E2
330
6F
100
AcDbEntity
  8
_2-E_文字
  6
Continuous
 62
     4
100
AcDbLine
 10
130.4476907986555
 20
236.9105114440661
 30
0.0
 11
134.9836276458415
 21
229.0540383648163
 31
0.0
  0
LINE
  5
2E3
330
6F
100
AcDbEntity
  8
_2-E_文字
  6
Continuous
 62
     4
100
AcDbLine
 10
136.5795722263627
 20
229.0540383648163
 30
0.0
 11
134.9836276458415
 21
229.0540383648163
 31
0.0
  0
LINE
  5
2E4
330
6F
100
AcDbEntity
  8
_2-E_文字
  6
Continuous
 62
     4
100
AcDbLine
 10
165.9934409498957
 20
233.3655174936728
 30
0.0
 11
160.9596573755796
 21
224.6467485886516
 31
0.0
  0
LINE
  5
2E5
330
6F
100
AcDbEntity
  8
_2-E_文字
  6
Continuous
 62
     4
100
AcDbLine
 10
156.2207549244874
 20
224.6467485886516
 30
0.0
 11
160.9596573755796
 21
224.6467485886516
 31
0.0
  0
LINE
  5
2E6
330
6F
100
AcDbEntity
  8
_2-4_仕上げ
  6
Continuous
 62
     5
100
AcDbLine
 10
72.82040789984694
 20
209.2102943643272
 30
0.0
 11
89.52040789984664
 21
209.2102943643272
 31
0.0
  0
ARC
  5
2E7
330
6F
100
AcDbEntity
  8
_2-4_仕上げ
  6
DASHED1
 62
     5
100
AcDbCircle
 10
205.3204078998466
 20
209.2102943643073
 30
0.0
 40
3.0
100
AcDbArc
 50
246.4218215217973
 51
293.5781784782027
  0
ARC
  5
2E8
330
6F
100
AcDbEntity
  8
_2-4_仕上げ
  6
DASHED1
 62
     5
100
AcDbCircle
 10
205.3204078998466
 20
209.2102943643073
 30
0.0
 40
3.0
100
AcDbArc
 50
65.83285999616996
 51
113.5781784782027
  0
LINE
  5
2E9
330
6F
100
AcDbEntity
  8
_2-4_仕上げ
  6
DASHED1
 62
     5
100
AcDbLine
 10
204.1204078998465
 20
206.4607489473338
 30
0.0
 11
204.1204078998465
 21
211.9598397812808
 31
0.0
  0
LINE
  5
2EA
330
6F
100
AcDbEntity
  8
_2-4_仕上げ
  6
Continuous
 62
     5
100
AcDbLine
 10
165.3204078998468
 20
207.2102943643073
 30
0.0
 11
92.52040789984659
 21
207.2102943643073
 31
0.0
  0
LINE
  5
2EB
330
6F
100
AcDbEntity
  8
_2-4_仕上げ
  6
Continuous
 62
     5
100
AcDbLine
 10
92.52040789984659
 20
201.2102943643073
 30
0.0
 11
165.3204078998468
 21
201.2102943643073
 31
0.0
  0
LINE
  5
2EC
330
6F
100
AcDbEntity
  8
_2-4_仕上げ
  6
Continuous
 62
     5
100
AcDbLine
 10
168.9204078998467
 20
201.2102943643073
 30
0.0
 11
222.9204078998464
 21
201.2102943643073
 31
0.0
  0
LINE
  5
2ED
330
6F
100
AcDbEntity
  8
_2-4_仕上げ
  6
DASHED1
 62
     5
100
AcDbLine
 10
206.5204078998466
 20
206.4607489473338
 30
0.0
 11
206.5204078998466
 21
211.8845163287687
 31
0.0
  0
LINE
  5
2EE
330
6F
100
AcDbEntity
  8
_2-4_仕上げ
  6
Continuous
 62
     5
100
AcDbLine
 10
165.1204078998468
 20
154.4102943643073
 30
0.0
 11
169.1204078998468
 21
154.4102943643073
 31
0.0
  0
LINE
  5
2EF
330
6F
100
AcDbEntity
  8
_2-4_仕上げ
  6
Continuous
 62
     5
100
AcDbLine
 10
169.1204078998468
 20
154.4102943643073
 30
0.0
 11
169.1204078998468
 21
153.2102943643073
 31
0.0
  0
LINE
  5
2F0
330
6F
100
AcDbEntity
  8
_2-4_仕上げ
  6
Continuous
 62
     5
100
AcDbLine
 10
169.1204078998468
 20
153.2102943643073
 30
0.0
 11
165.1204078998468
 21
153.2102943643073
 31
0.0
  0
LINE
  5
2F1
330
6F
100
AcDbEntity
  8
_2-4_仕上げ
  6
Continuous
 62
     5
100
AcDbLine
 10
165.1204078998468
 20
153.2102943643073
 30
0.0
 11
165.1204078998468
 21
154.4102943643073
 31
0.0
  0
LINE
  5
2F2
330
6F
100
AcDbEntity
  8
_2-4_仕上げ
  6
Continuous
 62
     5
100
AcDbLine
 10
163.0545570705343
 20
153.2463487079851
 30
0.0
 11
164.0452157667685
 21
154.8314026219596
 31
0.0
  0
LINE
  5
2F3
330
6F
100
AcDbEntity
  8
_2-4_仕上げ
  6
Continuous
 62
     5
100
AcDbLine
 10
164.0452157667685
 20
154.8314026219596
 30
0.0
 11
164.7716988106734
 21
155.2276661004532
 31
0.0
  0
LINE
  5
2F4
330
6F
100
AcDbEntity
  8
_2-4_仕上げ
  6
Continuous
 62
     5
100
AcDbLine
 10
170.1956000329251
 20
154.8314026219596
 30
0.0
 11
169.4691169890201
 21
155.2276661004532
 31
0.0
  0
LINE
  5
2F5
330
6F
100
AcDbEntity
  8
_2-4_仕上げ
  6
Continuous
 62
     5
100
AcDbLine
 10
171.1862587291592
 20
153.2463487079851
 30
0.0
 11
170.1956000329251
 21
154.8314026219596
 31
0.0
  0
LINE
  5
2F6
330
6F
100
AcDbEntity
  8
_2-4_仕上げ
  6
Continuous
 62
     5
100
AcDbLine
 10
168.9204078998467
 20
155.2312146728049
 30
0.0
 11
168.9204078998467
 21
161.6102943643072
 31
0.0
  0
LINE
  5
2F7
330
6F
100
AcDbEntity
  8
_2-4_仕上げ
  6
Continuous
 62
     5
100
AcDbLine
 10
223.2204078998464
 20
163.7102943643073
 30
0.0
 11
168.3204078998468
 21
163.7102943643073
 31
0.0
  0
LINE
  5
2F8
330
6F
100
AcDbEntity
  8
_2-4_仕上げ
  6
Continuous
 62
     5
100
AcDbLine
 10
91.92040789984655
 20
163.7102943643073
 30
0.0
 11
165.9204078998467
 21
163.7102943643073
 31
0.0
  0
LINE
  5
2F9
330
6F
100
AcDbEntity
  8
_2-4_仕上げ
  6
Continuous
 62
     5
100
AcDbLine
 10
164.7716988106734
 20
155.2276661004532
 30
0.0
 11
166.2204078998468
 21
155.2370350887222
 31
0.0
  0
LINE
  5
2FA
330
6F
100
AcDbEntity
  8
_2-4_仕上げ
  6
Continuous
 62
     5
100
AcDbLine
 10
166.2204078998468
 20
160.7102943643073
 30
0.0
 11
166.2204078998468
 21
154.4102943643073
 31
0.0
  0
LINE
  5
2FB
330
6F
100
AcDbEntity
  8
_2-4_仕上げ
  6
Continuous
 62
     5
100
AcDbLine
 10
169.4691169890201
 20
155.2276661004532
 30
0.0
 11
168.0204078998467
 21
155.2370350887222
 31
0.0
  0
LINE
  5
2FC
330
6F
100
AcDbEntity
  8
_2-4_仕上げ
  6
Continuous
 62
     5
100
AcDbLine
 10
168.0204078998467
 20
160.7102943643073
 30
0.0
 11
168.0204078998467
 21
154.4102943643073
 31
0.0
  0
LINE
  5
2FD
330
6F
100
AcDbEntity
  8
_2-4_仕上げ
  6
Continuous
 62
     5
100
AcDbLine
 10
184.2204078998467
 20
154.4102943643073
 30
0.0
 11
188.2204078998467
 21
154.4102943643073
 31
0.0
  0
LINE
  5
2FE
330
6F
100
AcDbEntity
  8
_2-4_仕上げ
  6
Continuous
 62
     5
100
AcDbLine
 10
188.2204078998467
 20
154.4102943643073
 30
0.0
 11
188.2204078998467
 21
153.2102943643073
 31
0.0
  0
LINE
  5
2FF
330
6F
100
AcDbEntity
  8
_2-4_仕上げ
  6
Continuous
 62
     5
100
AcDbLine
 10
188.2204078998467
 20
153.2102943643073
 30
0.0
 11
184.2204078998467
 21
153.2102943643073
 31
0.0
  0
LINE
  5
300
330
6F
100
AcDbEntity
  8
_2-4_仕上げ
  6
Continuous
 62
     5
100
AcDbLine
 10
184.2204078998467
 20
153.2102943643073
 30
0.0
 11
184.2204078998467
 21
154.4102943643073
 31
0.0
  0
LINE
  5
301
330
6F
100
AcDbEntity
  8
_2-4_仕上げ
  6
Continuous
 62
     5
100
AcDbLine
 10
203.3204078998466
 20
154.4102943643073
 30
0.0
 11
207.3204078998466
 21
154.4102943643073
 31
0.0
  0
LINE
  5
302
330
6F
100
AcDbEntity
  8
_2-4_仕上げ
  6
Continuous
 62
     5
100
AcDbLine
 10
207.3204078998466
 20
154.4102943643073
 30
0.0
 11
207.3204078998466
 21
153.2102943643073
 31
0.0
  0
LINE
  5
303
330
6F
100
AcDbEntity
  8
_2-4_仕上げ
  6
Continuous
 62
     5
100
AcDbLine
 10
207.3204078998466
 20
153.2102943643073
 30
0.0
 11
203.3204078998466
 21
153.2102943643073
 31
0.0
  0
LINE
  5
304
330
6F
100
AcDbEntity
  8
_2-4_仕上げ
  6
Continuous
 62
     5
100
AcDbLine
 10
203.3204078998466
 20
153.2102943643073
 30
0.0
 11
203.3204078998466
 21
154.4102943643073
 31
0.0
  0
LINE
  5
305
330
6F
100
AcDbEntity
  8
_2-4_仕上げ
  6
Continuous
 62
     5
100
AcDbLine
 10
185.3204078998467
 20
154.4102943643073
 30
0.0
 11
185.3204078998467
 21
161.6102943643072
 31
0.0
  0
LINE
  5
306
330
6F
100
AcDbEntity
  8
_2-4_仕上げ
  6
Continuous
 62
     5
100
AcDbLine
 10
187.1204078998467
 20
154.4102943643073
 30
0.0
 11
187.1204078998467
 21
161.6102943643072
 31
0.0
  0
LINE
  5
307
330
6F
100
AcDbEntity
  8
_2-4_仕上げ
  6
Continuous
 62
     5
100
AcDbLine
 10
204.4204078998466
 20
154.4102943643073
 30
0.0
 11
204.4204078998466
 21
161.6102943643072
 31
0.0
  0
LINE
  5
308
330
6F
100
AcDbEntity
  8
_2-4_仕上げ
  6
Continuous
 62
     5
100
AcDbLine
 10
206.2204078998466
 20
154.4102943643073
 30
0.0
 11
206.2204078998466
 21
161.6102943643072
 31
0.0
  0
LINE
  5
309
330
6F
100
AcDbEntity
  8
_2-4_仕上げ
  6
Continuous
 62
     5
100
AcDbLine
 10
223.2204078998464
 20
161.6102943643072
 30
0.0
 11
168.3204078998468
 21
161.6102943643072
 31
0.0
  0
LINE
  5
30A
330
6F
100
AcDbEntity
  8
_2-4_仕上げ
  6
Continuous
 62
     5
100
AcDbLine
 10
146.0204078998466
 20
154.4102943643073
 30
0.0
 11
150.0204078998466
 21
154.4102943643073
 31
0.0
  0
LINE
  5
30B
330
6F
100
AcDbEntity
  8
_2-4_仕上げ
  6
Continuous
 62
     5
100
AcDbLine
 10
150.0204078998466
 20
154.4102943643073
 30
0.0
 11
150.0204078998466
 21
153.2102943643073
 31
0.0
  0
LINE
  5
30C
330
6F
100
AcDbEntity
  8
_2-4_仕上げ
  6
Continuous
 62
     5
100
AcDbLine
 10
150.0204078998466
 20
153.2102943643073
 30
0.0
 11
146.0204078998466
 21
153.2102943643073
 31
0.0
  0
LINE
  5
30D
330
6F
100
AcDbEntity
  8
_2-4_仕上げ
  6
Continuous
 62
     5
100
AcDbLine
 10
146.0204078998466
 20
153.2102943643073
 30
0.0
 11
146.0204078998466
 21
154.4102943643073
 31
0.0
  0
LINE
  5
30E
330
6F
100
AcDbEntity
  8
_2-4_仕上げ
  6
Continuous
 62
     5
100
AcDbLine
 10
147.1204078998467
 20
154.4102943643073
 30
0.0
 11
147.1204078998467
 21
161.6102943643072
 31
0.0
  0
LINE
  5
30F
330
6F
100
AcDbEntity
  8
_2-4_仕上げ
  6
Continuous
 62
     5
100
AcDbLine
 10
148.9204078998466
 20
154.4102943643073
 30
0.0
 11
148.9204078998466
 21
161.6102943643072
 31
0.0
  0
LINE
  5
310
330
6F
100
AcDbEntity
  8
_2-4_仕上げ
  6
Continuous
 62
     5
100
AcDbLine
 10
126.9204078998464
 20
154.4102943643073
 30
0.0
 11
130.9204078998464
 21
154.4102943643073
 31
0.0
  0
LINE
  5
311
330
6F
100
AcDbEntity
  8
_2-4_仕上げ
  6
Continuous
 62
     5
100
AcDbLine
 10
130.9204078998464
 20
154.4102943643073
 30
0.0
 11
130.9204078998464
 21
153.2102943643073
 31
0.0
  0
LINE
  5
312
330
6F
100
AcDbEntity
  8
_2-4_仕上げ
  6
Continuous
 62
     5
100
AcDbLine
 10
130.9204078998464
 20
153.2102943643073
 30
0.0
 11
126.9204078998464
 21
153.2102943643073
 31
0.0
  0
LINE
  5
313
330
6F
100
AcDbEntity
  8
_2-4_仕上げ
  6
Continuous
 62
     5
100
AcDbLine
 10
126.9204078998464
 20
153.2102943643073
 30
0.0
 11
126.9204078998464
 21
154.4102943643073
 31
0.0
  0
LINE
  5
314
330
6F
100
AcDbEntity
  8
_2-4_仕上げ
  6
Continuous
 62
     5
100
AcDbLine
 10
128.0204078998464
 20
154.4102943643073
 30
0.0
 11
128.0204078998464
 21
161.6102943643072
 31
0.0
  0
LINE
  5
315
330
6F
100
AcDbEntity
  8
_2-4_仕上げ
  6
Continuous
 62
     5
100
AcDbLine
 10
129.8204078998463
 20
154.4102943643073
 30
0.0
 11
129.8204078998463
 21
161.6102943643072
 31
0.0
  0
LINE
  5
316
330
6F
100
AcDbEntity
  8
_2-4_仕上げ
  6
Continuous
 62
     5
100
AcDbLine
 10
107.8204078998465
 20
154.4102943643073
 30
0.0
 11
111.8204078998465
 21
154.4102943643073
 31
0.0
  0
LINE
  5
317
330
6F
100
AcDbEntity
  8
_2-4_仕上げ
  6
Continuous
 62
     5
100
AcDbLine
 10
111.8204078998465
 20
154.4102943643073
 30
0.0
 11
111.8204078998465
 21
153.2102943643073
 31
0.0
  0
LINE
  5
318
330
6F
100
AcDbEntity
  8
_2-4_仕上げ
  6
Continuous
 62
     5
100
AcDbLine
 10
111.8204078998465
 20
153.2102943643073
 30
0.0
 11
107.8204078998465
 21
153.2102943643073
 31
0.0
  0
LINE
  5
319
330
6F
100
AcDbEntity
  8
_2-4_仕上げ
  6
Continuous
 62
     5
100
AcDbLine
 10
107.8204078998465
 20
153.2102943643073
 30
0.0
 11
107.8204078998465
 21
154.4102943643073
 31
0.0
  0
LINE
  5
31A
330
6F
100
AcDbEntity
  8
_2-4_仕上げ
  6
Continuous
 62
     5
100
AcDbLine
 10
108.9204078998465
 20
154.4102943643073
 30
0.0
 11
108.9204078998465
 21
161.6102943643072
 31
0.0
  0
LINE
  5
31B
330
6F
100
AcDbEntity
  8
_2-4_仕上げ
  6
Continuous
 62
     5
100
AcDbLine
 10
110.7204078998464
 20
154.4102943643073
 30
0.0
 11
110.7204078998464
 21
161.6102943643072
 31
0.0
  0
LINE
  5
31C
330
6F
100
AcDbEntity
  8
_2-4_仕上げ
  6
Continuous
 62
     5
100
AcDbLine
 10
88.72040789984657
 20
154.4102943643073
 30
0.0
 11
92.72040789984655
 21
154.4102943643073
 31
0.0
  0
LINE
  5
31D
330
6F
100
AcDbEntity
  8
_2-4_仕上げ
  6
Continuous
 62
     5
100
AcDbLine
 10
92.72040789984655
 20
154.4102943643073
 30
0.0
 11
92.72040789984655
 21
153.2102943643073
 31
0.0
  0
LINE
  5
31E
330
6F
100
AcDbEntity
  8
_2-4_仕上げ
  6
Continuous
 62
     5
100
AcDbLine
 10
92.72040789984655
 20
153.2102943643073
 30
0.0
 11
88.72040789984657
 21
153.2102943643073
 31
0.0
  0
LINE
  5
31F
330
6F
100
AcDbEntity
  8
_2-4_仕上げ
  6
Continuous
 62
     5
100
AcDbLine
 10
88.72040789984657
 20
153.2102943643073
 30
0.0
 11
88.72040789984657
 21
154.4102943643073
 31
0.0
  0
LINE
  5
320
330
6F
100
AcDbEntity
  8
_2-4_仕上げ
  6
Continuous
 62
     5
100
AcDbLine
 10
89.82040789984658
 20
154.4102943643073
 30
0.0
 11
89.82040789984658
 21
160.7102943643073
 31
0.0
  0
LINE
  5
321
330
6F
100
AcDbEntity
  8
_2-4_仕上げ
  6
Continuous
 62
     5
100
AcDbLine
 10
91.62040789984656
 20
154.4102943643073
 30
0.0
 11
91.62040789984656
 21
160.7102943643073
 31
0.0
  0
LINE
  5
322
330
6F
100
AcDbEntity
  8
_2-4_仕上げ
  6
Continuous
 62
     5
100
AcDbLine
 10
86.65455707053411
 20
153.2463487079851
 30
0.0
 11
87.64521576676825
 21
154.8314026219596
 31
0.0
  0
LINE
  5
323
330
6F
100
AcDbEntity
  8
_2-4_仕上げ
  6
Continuous
 62
     5
100
AcDbLine
 10
87.64521576676825
 20
154.8314026219596
 30
0.0
 11
88.37169881067325
 21
155.2276661004532
 31
0.0
  0
LINE
  5
324
330
6F
100
AcDbEntity
  8
_2-4_仕上げ
  6
Continuous
 62
     5
100
AcDbLine
 10
88.37169881067325
 20
155.2276661004532
 30
0.0
 11
89.82040789984658
 21
155.2370350887222
 31
0.0
  0
LINE
  5
325
330
6F
100
AcDbEntity
  8
_2-4_仕上げ
  6
Continuous
 62
     5
100
AcDbLine
 10
93.06911698901989
 20
155.2276661004532
 30
0.0
 11
91.62040789984656
 21
155.2370350887222
 31
0.0
  0
LINE
  5
326
330
6F
100
AcDbEntity
  8
_2-4_仕上げ
  6
Continuous
 62
     5
100
AcDbLine
 10
93.79560003292487
 20
154.8314026219596
 30
0.0
 11
93.06911698901989
 21
155.2276661004532
 31
0.0
  0
LINE
  5
327
330
6F
100
AcDbEntity
  8
_2-4_仕上げ
  6
Continuous
 62
     5
100
AcDbLine
 10
94.78625872915904
 20
153.2463487079851
 30
0.0
 11
93.79560003292487
 21
154.8314026219596
 31
0.0
  0
LINE
  5
328
330
6F
100
AcDbEntity
  8
_2-4_仕上げ
  6
Continuous
 62
     5
100
AcDbLine
 10
108.9204078998465
 20
160.7102943643073
 30
0.0
 11
92.07040789984658
 21
160.7102943643073
 31
0.0
  0
LINE
  5
329
330
6F
100
AcDbEntity
  8
_2-4_仕上げ
  6
Continuous
 62
     5
100
AcDbLine
 10
110.7204078998464
 20
160.7102943643073
 30
0.0
 11
128.0204078998464
 21
160.7102943643073
 31
0.0
  0
LINE
  5
32A
330
6F
100
AcDbEntity
  8
_2-4_仕上げ
  6
Continuous
 62
     5
100
AcDbLine
 10
147.1204078998463
 20
160.7102943643073
 30
0.0
 11
129.8204078998463
 21
160.7102943643073
 31
0.0
  0
LINE
  5
32B
330
6F
100
AcDbEntity
  8
_2-4_仕上げ
  6
Continuous
 62
     5
100
AcDbLine
 10
148.9204078998463
 20
160.7102943643073
 30
0.0
 11
165.3204078998468
 21
160.7102943643073
 31
0.0
  0
LINE
  5
32C
330
6F
100
AcDbEntity
  8
_2-4_仕上げ
  6
Continuous
 62
     5
100
AcDbLine
 10
165.3204078998468
 20
155.2312146728049
 30
0.0
 11
165.3204078998468
 21
163.7102943643073
 31
0.0
  0
LINE
  5
32D
330
6F
100
AcDbEntity
  8
_2-4_仕上げ
  6
Continuous
 62
     5
100
AcDbLine
 10
89.37040789984655
 20
161.3102943643073
 30
0.0
 11
72.82040789984666
 21
161.3102943643073
 31
0.0
  0
LINE
  5
32E
330
6F
100
AcDbEntity
  8
_2-4_仕上げ
  6
Continuous
 62
     5
100
AcDbLine
 10
89.52040789984659
 20
161.6102943643072
 30
0.0
 11
72.82040789984666
 21
161.6102943643072
 31
0.0
  0
LINE
  5
32F
330
6F
100
AcDbEntity
  8
_2-4_仕上げ
  6
Continuous
 62
     5
100
AcDbLine
 10
89.37040789984655
 20
161.6102943643072
 30
0.0
 11
89.37040789984655
 21
155.2341248807636
 31
0.0
  0
LINE
  5
330
330
6F
100
AcDbEntity
  8
_2-4_仕上げ
  6
Continuous
 62
     5
100
AcDbLine
 10
92.07040789984658
 20
163.7102943643073
 30
0.0
 11
92.07040789984658
 21
155.2341248807636
 31
0.0
  0
LINE
  5
331
330
6F
100
AcDbEntity
  8
_2-4_仕上げ
  6
Continuous
 62
     5
100
AcDbLine
 10
89.52040789984659
 20
163.7102943643073
 30
0.0
 11
72.82040789984666
 21
163.7102943643073
 31
0.0
  0
LINE
  5
332
330
6F
100
AcDbEntity
  8
_2-4_仕上げ
  6
Continuous
 62
     5
100
AcDbLine
 10
204.1569547153252
 20
235.1326904133906
 30
0.0
 11
194.6725061620477
 21
236.4981557693099
 31
0.0
  0
LINE
  5
333
330
6F
100
AcDbEntity
  8
_2-4_仕上げ
  6
Continuous
 62
     5
100
AcDbLine
 10
194.6736497944207
 20
236.5140174493322
 30
0.0
 11
169.3829875659735
 21
236.936126345312
 31
0.0
  0
LINE
  5
334
330
6F
100
AcDbEntity
  8
_2-4_仕上げ
  6
Continuous
 62
     5
100
AcDbLine
 10
78.72040789984658
 20
232.5519351500764
 30
0.0
 11
79.25706421450127
 21
231.4786225209039
 31
0.0
  0
LINE
  5
335
330
6F
100
AcDbEntity
  8
_2-4_仕上げ
  6
Continuous
 62
     5
100
AcDbLine
 10
78.72040789984658
 20
232.5519351500764
 30
0.0
 11
148.0204078998466
 21
267.2019351544943
 31
0.0
  0
LINE
  5
336
330
6F
100
AcDbEntity
  8
_2-4_仕上げ
  6
Continuous
 62
     5
100
AcDbLine
 10
148.0204078998466
 20
265.8602943679602
 30
0.0
 11
79.25706421450127
 21
231.4786225209039
 31
0.0
  0
LINE
  5
337
330
6F
100
AcDbEntity
  8
_2-4_仕上げ
  6
Continuous
 62
     5
100
AcDbLine
 10
217.3204078998467
 20
232.5519351500764
 30
0.0
 11
216.783751585192
 21
231.4786225209039
 31
0.0
  0
LINE
  5
338
330
6F
100
AcDbEntity
  8
_2-4_仕上げ
  6
Continuous
 62
     5
100
AcDbLine
 10
197.6248636883596
 20
240.1052652443045
 30
0.0
 11
205.5224200712442
 21
238.5552775429907
 31
0.0
  0
LINE
  5
339
330
6F
100
AcDbEntity
  8
_2-4_仕上げ
  6
Continuous
 62
     5
100
AcDbLine
 10
197.6248636883596
 20
240.1052652443045
 30
0.0
 11
185.2204078998467
 21
240.7982516012047
 31
0.0
  0
LINE
  5
33A
330
6F
100
AcDbEntity
  8
_2-4_仕上げ
  6
Continuous
 62
     5
100
AcDbLine
 10
99.07930210899905
 20
239.3040469309163
 30
0.0
 11
111.8088085837258
 21
240.2519889024385
 31
0.0
  0
LINE
  5
33B
330
6F
100
AcDbEntity
  8
_2-4_仕上げ
  6
Continuous
 62
     5
100
AcDbLine
 10
98.39252782350843
 20
233.9065814195959
 30
0.0
 11
111.1220342982352
 21
234.8545233911181
 31
0.0
  0
LINE
  5
33C
330
6F
100
AcDbEntity
  8
_2-4_仕上げ
  6
Continuous
 62
     5
100
AcDbLine
 10
169.73919991503
 20
241.2102943643073
 30
0.0
 11
185.2204078998467
 21
240.8715384815156
 31
0.0
  0
LINE
  5
33D
330
6F
100
AcDbEntity
  8
_2-4_仕上げ
  6
Continuous
 62
     5
100
AcDbLine
 10
169.73919991503
 20
241.2102943643073
 30
0.0
 11
164.8358744649973
 21
241.2102943643073
 31
0.0
  0
LINE
  5
33E
330
6F
100
AcDbEntity
  8
_2-4_仕上げ
  6
Continuous
 62
     5
100
AcDbLine
 10
164.8094749917593
 20
240.2102943643073
 30
0.0
 11
164.8358744649973
 21
241.2102943643073
 31
0.0
  0
LINE
  5
33F
330
6F
100
AcDbEntity
  8
_2-4_仕上げ
  6
Continuous
 62
     5
100
AcDbLine
 10
129.9790699424896
 20
241.3294221753396
 30
0.0
 11
146.3572264623436
 21
241.3294221753396
 31
0.0
  0
LINE
  5
340
330
6F
100
AcDbEntity
  8
_2-4_仕上げ
  6
Continuous
 62
     5
100
AcDbLine
 10
146.3572264623436
 20
241.3294221753396
 30
0.0
 11
164.7227908639929
 21
240.2040225314316
 31
0.0
  0
LINE
  5
341
330
6F
100
AcDbEntity
  8
_2-4_仕上げ
  6
Continuous
 62
     5
100
AcDbLine
 10
169.73919991503
 20
240.2102943643073
 30
0.0
 11
164.6204398891896
 21
240.2102943643073
 31
0.0
  0
LINE
  5
342
330
6F
100
AcDbEntity
  8
_2-4_仕上げ
  6
Continuous
 62
     5
100
AcDbLine
 10
111.8088085837258
 20
240.2519889024385
 30
0.0
 11
120.3228398872012
 21
240.5524841249141
 31
0.0
  0
LINE
  5
343
330
6F
100
AcDbEntity
  8
_2-4_仕上げ
  6
Continuous
 62
     5
100
AcDbLine
 10
129.9790699424896
 20
241.3294221753396
 30
0.0
 11
120.3228398872008
 21
240.5524841249141
 31
0.0
  0
LINE
  5
344
330
6F
100
AcDbEntity
  8
_2-4_仕上げ
  6
Continuous
 62
     5
100
AcDbLine
 10
129.9790699424896
 20
235.84797995573
 30
0.0
 11
146.3572264623436
 21
235.84797995573
 31
0.0
  0
LINE
  5
345
330
6F
100
AcDbEntity
  8
_2-4_仕上げ
  6
Continuous
 62
     5
100
AcDbLine
 10
111.1220342982352
 20
234.8545233911181
 30
0.0
 11
122.7188154749615
 21
235.2638215502967
 31
0.0
  0
LINE
  5
346
330
6F
100
AcDbEntity
  8
_2-4_仕上げ
  6
Continuous
 62
     5
100
AcDbLine
 10
129.9790699424896
 20
235.84797995573
 30
0.0
 11
122.7188154749615
 21
235.2638215502967
 31
0.0
  0
LINE
  5
347
330
6F
100
AcDbEntity
  8
_2-4_仕上げ
  6
Continuous
 62
     5
100
AcDbLine
 10
168.5245199155644
 20
234.8539270144703
 30
0.0
 11
169.7090616984264
 21
234.7968406634889
 31
0.0
  0
LINE
  5
348
330
6F
100
AcDbEntity
  8
_2-4_仕上げ
  6
Continuous
 62
     5
100
AcDbLine
 10
169.7090616984264
 20
234.7968406634889
 30
0.0
 11
169.7233332861716
 21
240.2914019454386
 31
0.0
  0
LINE
  5
349
330
6F
100
AcDbEntity
  8
_2-4_仕上げ
  6
Continuous
 62
     5
100
AcDbLine
 10
108.6204078998464
 20
243.7602943655249
 30
0.0
 11
108.6204078998464
 21
239.8195462294745
 31
0.0
  0
LINE
  5
34A
330
6F
100
AcDbEntity
  8
_2-4_仕上げ
  6
Continuous
 62
     5
100
AcDbLine
 10
111.0204078998465
 20
243.7602943655249
 30
0.0
 11
111.0204078998465
 21
239.8195462294745
 31
0.0
  0
LINE
  5
34B
330
6F
100
AcDbEntity
  8
_2-4_仕上げ
  6
Continuous
 62
     5
100
AcDbLine
 10
187.4204078998467
 20
243.7602943655249
 30
0.0
 11
187.4204078998467
 21
240.6879643951749
 31
0.0
  0
LINE
  5
34C
330
6F
100
AcDbEntity
  8
_2-4_仕上げ
  6
Continuous
 62
     5
100
AcDbLine
 10
185.0204078998466
 20
243.7602943655249
 30
0.0
 11
185.0204078998466
 21
240.6879643951749
 31
0.0
  0
LINE
  5
34D
330
6F
100
AcDbEntity
  8
_2-4_仕上げ
  6
Continuous
 62
     5
100
AcDbLine
 10
92.07040789984665
 20
232.886884657715
 30
0.0
 11
98.39252782350843
 21
233.9065814195959
 31
0.0
  0
LINE
  5
34E
330
6F
100
AcDbEntity
  8
_2-4_仕上げ
  6
Continuous
 62
     5
100
AcDbLine
 10
207.3471387434073
 20
236.8574458285621
 30
0.0
 11
207.3471387434073
 21
236.1969289423978
 31
0.0
  0
LINE
  5
34F
330
6F
100
AcDbEntity
  8
_2-4_仕上げ
  6
Continuous
 62
     5
100
AcDbLine
 10
207.3471387434073
 20
236.1969289423978
 30
0.0
 11
207.3471387434073
 21
235.1326904133906
 31
0.0
  0
LINE
  5
350
330
6F
100
AcDbEntity
  8
_2-4_仕上げ
  6
Continuous
 62
     5
100
AcDbLine
 10
148.0204078998466
 20
265.8602943679602
 30
0.0
 11
216.783751585192
 21
231.4786225209039
 31
0.0
  0
LINE
  5
351
330
6F
100
AcDbEntity
  8
_2-4_仕上げ
  6
Continuous
 62
     5
100
AcDbLine
 10
206.6704078998466
 20
235.1326904133906
 30
0.0
 11
207.3471387434073
 21
235.1326904133906
 31
0.0
  0
LINE
  5
352
330
6F
100
AcDbEntity
  8
_2-4_仕上げ
  6
Continuous
 62
     5
100
AcDbLine
 10
204.1204078998465
 20
207.2102943643073
 30
0.0
 11
204.1204078998465
 21
234.5102943643074
 31
0.0
  0
LINE
  5
353
330
6F
100
AcDbEntity
  8
_2-4_仕上げ
  6
DASHED1
 62
     5
100
AcDbLine
 10
206.6704078998466
 20
235.1326904133906
 30
0.0
 11
203.9704078998466
 21
235.1326904133906
 31
0.0
  0
LINE
  5
354
330
6F
100
AcDbEntity
  8
_2-4_仕上げ
  6
Continuous
 62
     5
100
AcDbLine
 10
90.78138963153593
 20
238.4102943643073
 30
0.0
 11
99.07930210899905
 21
239.3040469309163
 31
0.0
  0
LINE
  5
355
330
6F
100
AcDbEntity
  8
_2-4_仕上げ
  6
Continuous
 62
     5
100
AcDbLine
 10
90.72040789984654
 20
237.2102943643074
 30
0.0
 11
90.72040789984654
 21
238.4102943643073
 31
0.0
  0
LINE
  5
356
330
6F
100
AcDbEntity
  8
_2-4_仕上げ
  6
Continuous
 62
     5
100
AcDbLine
 10
146.3572264623436
 20
235.84797995573
 30
0.0
 11
165.3204078998468
 21
234.6859597111894
 31
0.0
  0
LINE
  5
357
330
6F
100
AcDbEntity
  8
_2-4_仕上げ
  6
Continuous
 62
     5
100
AcDbLine
 10
165.7415603052262
 20
234.6541247860357
 30
0.0
 11
165.3204078998468
 21
234.6824238379894
 31
0.0
  0
LINE
  5
358
330
6F
100
AcDbEntity
  8
_2-4_仕上げ
  6
Continuous
 62
     5
100
AcDbLine
 10
165.3204078998468
 20
234.6824238379894
 30
0.0
 11
165.3204078998468
 21
234.6859597111894
 31
0.0
  0
LINE
  5
359
330
6F
100
AcDbEntity
  8
_2-4_仕上げ
  6
Continuous
 62
     5
100
AcDbLine
 10
168.9204078998467
 20
163.7102943643073
 30
0.0
 11
168.9204078998467
 21
234.8539270144703
 31
0.0
  0
LINE
  5
35A
330
6F
100
AcDbEntity
  8
_2-4_仕上げ
  6
Continuous
 62
     5
100
AcDbLine
 10
92.07040789984658
 20
234.5102943643074
 30
0.0
 11
92.07040789984658
 21
164.0102943643073
 31
0.0
  0
LINE
  5
35B
330
6F
100
AcDbEntity
  8
_2-4_仕上げ
  6
Continuous
 62
     5
100
AcDbLine
 10
165.3204078998468
 20
163.7102943643073
 30
0.0
 11
165.3204078998468
 21
234.6824238379894
 31
0.0
  0
LINE
  5
35C
330
6F
100
AcDbEntity
  8
_2-4_仕上げ
  6
Continuous
 62
     5
100
AcDbLine
 10
242.4204078998466
 20
205.4261970955232
 30
0.0
 11
241.9279702870129
 21
204.3318912893306
 31
0.0
  0
LINE
  5
35D
330
6F
100
AcDbEntity
  8
_2-4_仕上げ
  6
Continuous
 62
     5
100
AcDbLine
 10
241.9279702870129
 20
204.3318912893306
 30
0.0
 11
205.3204078998467
 21
220.8052943651273
 31
0.0
  0
LINE
  5
35E
330
6F
100
AcDbEntity
  8
_2-4_仕上げ
  6
Continuous
 62
     5
100
AcDbLine
 10
242.4204078998466
 20
205.4261970955232
 30
0.0
 11
206.6704078998468
 21
221.5136970970581
 31
0.0
  0
LINE
  5
35F
330
6F
100
AcDbEntity
  8
_2-4_仕上げ
  6
Continuous
 62
     5
100
AcDbLine
 10
223.2204078998464
 20
212.2102943643272
 30
0.0
 11
206.5204078998466
 21
212.2102943643272
 31
0.0
  0
LINE
  5
360
330
6F
100
AcDbEntity
  8
_2-4_仕上げ
  6
Continuous
 62
     5
100
AcDbLine
 10
223.2204078998464
 20
209.2102943643272
 30
0.0
 11
206.5204078998466
 21
209.2102943643272
 31
0.0
  0
ARC
  5
361
330
6F
100
AcDbEntity
  8
_2-4_仕上げ
  6
DASHED1
 62
     5
100
AcDbCircle
 10
90.72040789984669
 20
209.2102943643073
 30
0.0
 40
3.0
100
AcDbArc
 50
66.42182152179725
 51
114.16714000383
  0
LINE
  5
362
330
6F
100
AcDbEntity
  8
_2-4_仕上げ
  6
Continuous
 62
     5
100
AcDbLine
 10
53.62040789984666
 20
205.4261970955232
 30
0.0
 11
54.11284551268034
 21
204.3318912893306
 31
0.0
  0
LINE
  5
363
330
6F
100
AcDbEntity
  8
_2-4_仕上げ
  6
Continuous
 62
     5
100
AcDbLine
 10
54.11284551268034
 20
204.3318912893306
 30
0.0
 11
90.72040789984654
 21
220.8052943651273
 31
0.0
  0
LINE
  5
364
330
6F
100
AcDbEntity
  8
_2-4_仕上げ
  6
Continuous
 62
     5
100
AcDbLine
 10
70.42040789984669
 20
156.1396385892099
 30
0.0
 11
70.42040789984669
 21
209.8102943643072
 31
0.0
  0
LINE
  5
365
330
6F
100
AcDbEntity
  8
_2-4_仕上げ
  6
Continuous
 62
     5
100
AcDbLine
 10
72.82040789984666
 20
156.1396385892099
 30
0.0
 11
72.82040789984666
 21
209.8102943643072
 31
0.0
  0
LINE
  5
366
330
6F
100
AcDbEntity
  8
_2-4_仕上げ
  6
Continuous
 62
     5
100
AcDbLine
 10
217.3204078998466
 20
232.5519351500765
 30
0.0
 11
148.0204078998466
 21
267.2019351544943
 31
0.0
  0
LINE
  5
367
330
6F
100
AcDbEntity
  8
_2-4_仕上げ
  6
Continuous
 62
     5
100
AcDbLine
 10
89.37040789984655
 20
164.0102943643073
 30
0.0
 11
165.9204078998467
 21
164.0102943643073
 31
0.0
  0
LINE
  5
368
330
6F
100
AcDbEntity
  8
_2-4_仕上げ
  6
Continuous
 62
     5
100
AcDbLine
 10
168.9204078998467
 20
164.9102943643073
 30
0.0
 11
223.2204078998464
 21
164.9102943643073
 31
0.0
  0
LINE
  5
369
330
6F
100
AcDbEntity
  8
_2-4_仕上げ
  6
Continuous
 62
     5
100
AcDbLine
 10
130.1204078998464
 20
207.2102943643073
 30
0.0
 11
130.1204078998464
 21
235.7628002511496
 31
0.0
  0
LINE
  5
36A
330
6F
100
AcDbEntity
  8
_2-4_仕上げ
  6
Continuous
 62
     5
100
AcDbLine
 10
127.7204078998463
 20
207.2102943643073
 30
0.0
 11
127.7204078998463
 21
235.5568203885396
 31
0.0
  0
LINE
  5
36B
330
6F
100
AcDbEntity
  8
_2-4_仕上げ
  6
Continuous
 62
     5
100
AcDbLine
 10
146.8204078998466
 20
262.8602943679602
 30
0.0
 11
146.8204078998466
 21
254.5102943667425
 31
0.0
  0
LINE
  5
36C
330
6F
100
AcDbEntity
  8
_2-4_仕上げ
  6
Continuous
 62
     5
100
AcDbLine
 10
149.2204078998467
 20
262.8602943679602
 30
0.0
 11
149.2204078998467
 21
254.5102943667425
 31
0.0
  0
LINE
  5
36D
330
6F
100
AcDbEntity
  8
_2-4_仕上げ
  6
Continuous
 62
     5
100
AcDbLine
 10
126.5204078998463
 20
254.5102943667425
 30
0.0
 11
127.7204078998463
 21
254.5102943667425
 31
0.0
  0
LINE
  5
36E
330
6F
100
AcDbEntity
  8
_2-4_仕上げ
  6
Continuous
 62
     5
100
AcDbLine
 10
130.1204078998464
 20
254.5102943667425
 30
0.0
 11
165.9204078998467
 21
254.5102943667425
 31
0.0
  0
LINE
  5
36F
330
6F
100
AcDbEntity
  8
_2-4_仕上げ
  6
Continuous
 62
     5
100
AcDbLine
 10
168.3204078998468
 20
254.5102943667425
 30
0.0
 11
169.5204078998469
 21
254.5102943667425
 31
0.0
  0
LINE
  5
370
330
6F
100
AcDbEntity
  8
_2-4_仕上げ
  6
Continuous
 62
     5
100
AcDbLine
 10
146.8204078998466
 20
251.5102943667425
 30
0.0
 11
146.8204078998466
 21
241.2275062332761
 31
0.0
  0
LINE
  5
371
330
6F
100
AcDbEntity
  8
_2-4_仕上げ
  6
Continuous
 62
     5
100
AcDbLine
 10
149.2204078998467
 20
251.5102943667425
 30
0.0
 11
149.2204078998467
 21
241.2275062332761
 31
0.0
  0
LINE
  5
372
330
6F
100
AcDbEntity
  8
_2-4_仕上げ
  6
Continuous
 62
     5
100
AcDbLine
 10
130.1204078998464
 20
251.5102943667425
 30
0.0
 11
130.1204078998464
 21
240.9774371170751
 31
0.0
  0
LINE
  5
373
330
6F
100
AcDbEntity
  8
_2-4_仕上げ
  6
Continuous
 62
     5
100
AcDbLine
 10
127.7204078998463
 20
251.5102943667425
 30
0.0
 11
127.7204078998463
 21
240.9774371170751
 31
0.0
  0
LINE
  5
374
330
6F
100
AcDbEntity
  8
_2-4_仕上げ
  6
Continuous
 62
     5
100
AcDbLine
 10
130.1204078998464
 20
251.5102943667425
 30
0.0
 11
126.5204078998463
 21
251.5102943667425
 31
0.0
  0
LINE
  5
375
330
6F
100
AcDbEntity
  8
_2-4_仕上げ
  6
Continuous
 62
     5
100
AcDbLine
 10
126.5204078998463
 20
251.5102943667425
 30
0.0
 11
126.5204078998463
 21
254.5102943667425
 31
0.0
  0
LINE
  5
376
330
6F
100
AcDbEntity
  8
_2-4_仕上げ
  6
Continuous
 62
     5
100
AcDbLine
 10
165.9204078998467
 20
251.5102943667425
 30
0.0
 11
165.9204078998467
 21
241.2102943643073
 31
0.0
  0
LINE
  5
377
330
6F
100
AcDbEntity
  8
_2-4_仕上げ
  6
Continuous
 62
     5
100
AcDbLine
 10
168.3204078998468
 20
241.2102943643073
 30
0.0
 11
168.3204078998468
 21
251.5102943667425
 31
0.0
  0
LINE
  5
378
330
6F
100
AcDbEntity
  8
_2-4_仕上げ
  6
Continuous
 62
     5
100
AcDbLine
 10
130.1204078998464
 20
251.5102943667425
 30
0.0
 11
169.5204078998469
 21
251.5102943667425
 31
0.0
  0
LINE
  5
379
330
6F
100
AcDbEntity
  8
_2-4_仕上げ
  6
Continuous
 62
     5
100
AcDbLine
 10
169.5204078998469
 20
254.5102943667425
 30
0.0
 11
169.5204078998469
 21
251.5102943667425
 31
0.0
  0
LINE
  5
37A
330
6F
100
AcDbEntity
  8
_2-4_仕上げ
  6
Continuous
 62
     5
100
AcDbLine
 10
168.9204078998467
 20
207.2102943643073
 30
0.0
 11
223.2204078998464
 21
207.2102943643073
 31
0.0
  0
LINE
  5
37B
330
6F
100
AcDbEntity
  8
_2-4_仕上げ
  6
Continuous
 62
     5
100
AcDbLine
 10
223.2204078998464
 20
209.8102943643073
 30
0.0
 11
223.2204078998464
 21
156.8102943643073
 31
0.0
  0
LINE
  5
37C
330
6F
100
AcDbEntity
  8
_2-4_仕上げ
  6
Continuous
 62
     5
100
AcDbLine
 10
72.82040789984694
 20
212.2102943643272
 30
0.0
 11
89.37040789984655
 21
212.2102943643272
 31
0.0
  0
LINE
  5
37D
330
6F
100
AcDbEntity
  8
_2-4_仕上げ
  6
Continuous
 62
     5
100
AcDbLine
 10
206.5204078998466
 20
207.2102943643073
 30
0.0
 11
206.5204078998466
 21
222.4778622483394
 31
0.0
  0
LINE
  5
37E
330
6F
100
AcDbEntity
  8
_2-4_仕上げ
  6
Continuous
 62
     5
100
AcDbLine
 10
53.62040789984666
 20
205.4261970955232
 30
0.0
 11
89.37040789984655
 21
221.5136970970581
 31
0.0
  0
LINE
  5
37F
330
6F
100
AcDbEntity
  8
_2-4_仕上げ
  6
Continuous
 62
     5
100
AcDbLine
 10
89.37040789984655
 20
234.5102943643074
 30
0.0
 11
89.37040789984655
 21
164.0102943643073
 31
0.0
  0
LINE
  5
380
330
6F
100
AcDbEntity
  8
_2-4_仕上げ
  6
Continuous
 62
     5
100
AcDbLine
 10
225.6204078998464
 20
209.8102943643072
 30
0.0
 11
225.6204078998464
 21
197.8702943643073
 31
0.0
  0
LINE
  5
381
330
6F
100
AcDbEntity
  8
_2-4_仕上げ
  6
Continuous
 62
     5
100
AcDbLine
 10
225.6204078998464
 20
185.2102943643073
 30
0.0
 11
225.6204078998464
 21
156.8102943643073
 31
0.0
  0
LINE
  5
382
330
6F
100
AcDbEntity
  8
_2-4_仕上げ
  6
Continuous
 62
     5
100
AcDbLine
 10
91.8704078998466
 20
218.8102943643073
 30
0.0
 11
165.9704078998468
 21
218.8102943643073
 31
0.0
  0
LINE
  5
383
330
6F
100
AcDbEntity
  8
_2-4_仕上げ
  6
Continuous
 62
     5
100
AcDbLine
 10
224.4204078998464
 20
207.8102943643073
 30
0.0
 11
205.3204078998466
 21
207.8102943643073
 31
0.0
  0
SOLID
  5
384
330
6F
100
AcDbEntity
  8
_2-B_敷地外要素
  6
Continuous
 62
     8
100
AcDbTrace
 10
72.82040789984694
 20
212.2102943643073
 30
0.0
 11
70.42040789984683
 21
212.2102943643073
 31
0.0
 12
72.82040789984694
 22
209.8102943643073
 32
0.0
 13
70.42040789984683
 23
209.8102943643073
 33
0.0
  0
SOLID
  5
385
330
6F
100
AcDbEntity
  8
_2-B_敷地外要素
  6
Continuous
 62
     8
100
AcDbTrace
 10
70.42040789984669
 20
156.8102943643073
 30
0.0
 11
72.82040789984666
 21
156.8102943643073
 31
0.0
 12
70.42040789984669
 22
154.4102943643073
 32
0.0
 13
72.82040789984666
 23
154.4102943643073
 33
0.0
  0
SOLID
  5
386
330
6F
100
AcDbEntity
  8
_2-B_敷地外要素
  6
Continuous
 62
     8
100
AcDbTrace
 10
89.37040789984655
 20
237.2102943643073
 30
0.0
 11
92.07040789984658
 21
237.2102943643073
 31
0.0
 12
89.37040789984655
 22
234.5102943643074
 32
0.0
 13
92.07040789984658
 23
234.5102943643074
 33
0.0
  0
SOLID
  5
387
330
6F
100
AcDbEntity
  8
_2-B_敷地外要素
  6
Continuous
 62
     8
100
AcDbTrace
 10
89.37040789984655
 20
201.2102943643073
 30
0.0
 11
89.37040789984655
 21
207.2102943643073
 31
0.0
 12
92.07040789984658
 22
201.2102943643073
 32
0.0
 13
92.07040789984658
 23
207.2102943643073
 33
0.0
  0
SOLID
  5
388
330
6F
100
AcDbEntity
  8
_2-B_敷地外要素
  6
Continuous
 62
     8
100
AcDbTrace
 10
165.7704078998467
 20
201.2102943643073
 30
0.0
 11
165.7704078998467
 21
207.2102943643073
 31
0.0
 12
168.4704078998468
 22
201.2102943643073
 32
0.0
 13
168.4704078998468
 23
207.2102943643073
 33
0.0
  0
SOLID
  5
389
330
6F
100
AcDbEntity
  8
_2-B_敷地外要素
  6
Continuous
 62
     8
100
AcDbTrace
 10
204.1204078998465
 20
202.4102943643073
 30
0.0
 11
204.1204078998465
 21
207.2102943643073
 31
0.0
 12
206.5204078998466
 22
202.4102943643073
 32
0.0
 13
206.5204078998466
 23
207.2102943643073
 33
0.0
  0
SOLID
  5
38A
330
6F
100
AcDbEntity
  8
_2-B_敷地外要素
  6
Continuous
 62
     8
100
AcDbTrace
 10
223.2204078998313
 20
201.2102943643073
 30
0.0
 11
223.2204078998313
 21
207.2102943643073
 31
0.0
 12
225.6204078998615
 22
201.2102943643073
 32
0.0
 13
225.6204078998615
 23
207.2102943643073
 33
0.0
  0
SOLID
  5
38B
330
6F
100
AcDbEntity
  8
_2-B_敷地外要素
  6
Continuous
 62
     8
100
AcDbTrace
 10
223.2204078998464
 20
209.8102943643073
 30
0.0
 11
223.2204078998464
 21
212.2102943643073
 31
0.0
 12
225.6204078998464
 22
209.8102943643073
 32
0.0
 13
225.6204078998464
 23
212.2102943643073
 33
0.0
  0
SOLID
  5
38C
330
6F
100
AcDbEntity
  8
_2-B_敷地外要素
  6
Continuous
 62
     8
100
AcDbTrace
 10
203.9704078998466
 20
237.2102943643073
 30
0.0
 11
206.6704078998466
 21
237.2102943643073
 31
0.0
 12
203.9704078998466
 22
234.5102943643074
 32
0.0
 13
206.6704078998466
 23
234.5102943643074
 33
0.0
  0
SOLID
  5
38D
330
6F
100
AcDbEntity
  8
_2-B_敷地外要素
  6
Continuous
 62
     8
100
AcDbTrace
 10
165.7704078998467
 20
237.2102943643073
 30
0.0
 11
168.4704078998468
 21
237.2102943643073
 31
0.0
 12
165.7704078998467
 22
232.4102943643073
 32
0.0
 13
168.4704078998468
 23
232.4102943643073
 33
0.0
  0
SOLID
  5
38E
330
6F
100
AcDbEntity
  8
_2-B_敷地外要素
  6
Continuous
 62
     8
100
AcDbTrace
 10
223.2204078998464
 20
156.8102943643073
 30
0.0
 11
225.6204078998464
 21
156.8102943643073
 31
0.0
 12
223.2204078998464
 22
154.4102943643073
 32
0.0
 13
225.6204078998464
 23
154.4102943643073
 33
0.0
  0
LINE
  5
38F
330
6F
100
AcDbEntity
  8
_2-5_建具枠
  6
Continuous
 62
     2
100
AcDbLine
 10
89.37040789984655
 20
165.2102943643073
 30
0.0
 11
92.07040789984658
 21
165.2102943643073
 31
0.0
  0
LINE
  5
390
330
6F
100
AcDbEntity
  8
_2-5_建具枠
  6
Continuous
 62
     2
100
AcDbLine
 10
92.07040789984658
 20
165.2102943643073
 30
0.0
 11
92.07040789984658
 21
164.0102943643073
 31
0.0
  0
LINE
  5
391
330
6F
100
AcDbEntity
  8
_2-5_建具枠
  6
Continuous
 62
     2
100
AcDbLine
 10
92.07040789984658
 20
164.0102943643073
 30
0.0
 11
89.37040789984655
 21
164.0102943643073
 31
0.0
  0
LINE
  5
392
330
6F
100
AcDbEntity
  8
_2-5_建具枠
  6
Continuous
 62
     2
100
AcDbLine
 10
89.37040789984655
 20
164.0102943643073
 30
0.0
 11
89.37040789984655
 21
165.2102943643073
 31
0.0
  0
LINE
  5
393
330
6F
100
AcDbEntity
  8
_2-5_建具枠
  6
Continuous
 62
     2
100
AcDbLine
 10
165.7704078998467
 20
165.2102943643073
 30
0.0
 11
168.4704078998468
 21
165.2102943643073
 31
0.0
  0
LINE
  5
394
330
6F
100
AcDbEntity
  8
_2-5_建具枠
  6
Continuous
 62
     2
100
AcDbLine
 10
168.4704078998468
 20
165.2102943643073
 30
0.0
 11
168.4704078998468
 21
164.0102943643073
 31
0.0
  0
LINE
  5
395
330
6F
100
AcDbEntity
  8
_2-5_建具枠
  6
Continuous
 62
     2
100
AcDbLine
 10
168.4704078998468
 20
164.0102943643073
 30
0.0
 11
165.7704078998467
 21
164.0102943643073
 31
0.0
  0
LINE
  5
396
330
6F
100
AcDbEntity
  8
_2-5_建具枠
  6
Continuous
 62
     2
100
AcDbLine
 10
165.7704078998467
 20
164.0102943643073
 30
0.0
 11
165.7704078998467
 21
165.2102943643073
 31
0.0
  0
LINE
  5
397
330
6F
100
AcDbEntity
  8
_2-1_工作物
  6
Continuous
 62
     7
100
AcDbLine
 10
48.10233978430222
 20
153.2102943643073
 30
0.0
 11
34.59443539484875
 21
156.1737292750431
 31
0.0
  0
LINE
  5
398
330
6F
100
AcDbEntity
  8
_2-1_工作物
  6
Continuous
 62
     7
100
AcDbLine
 10
34.59443539484875
 20
156.1737292750431
 30
0.0
 11
11.78960653070547
 21
157.5990310790521
 31
0.0
  0
LINE
  5
399
330
6F
100
AcDbEntity
  8
_2-1_工作物
  6
Continuous
 62
     7
100
AcDbLine
 10
48.10233978430222
 20
153.2102943643073
 30
0.0
 11
232.435994773321
 21
153.2102943643073
 31
0.0
  0
LINE
  5
39A
330
6F
100
AcDbEntity
  8
_2-1_工作物
  6
Continuous
 62
     7
100
AcDbLine
 10
260.4204078998464
 20
153.2102943643073
 30
0.0
 11
232.4359947733211
 21
153.2102943643073
 31
0.0
  0
LINE
  5
39B
330
6F
100
AcDbEntity
  8
_2-1_工作物
  6
Continuous
 62
     7
100
AcDbLine
 10
260.4204078998464
 20
153.2102943643073
 30
0.0
 11
280.9033151023168
 21
151.0329717103737
 31
0.0
  0
LINE
  5
39C
330
6F
100
AcDbEntity
  8
_2-3_植栽
  6
Continuous
 62
     6
100
AcDbLine
 10
206.4704078998468
 20
222.9195998290556
 30
0.0
 11
208.3204078998467
 21
222.0870998289761
 31
0.0
  0
LINE
  5
39D
330
6F
100
AcDbEntity
  8
_2-3_植栽
  6
Continuous
 62
     6
100
AcDbLine
 10
91.8704078998466
 20
207.2102943643073
 30
0.0
 11
91.8704078998466
 21
218.2102943643073
 31
0.0
  0
LINE
  5
39E
330
6F
100
AcDbEntity
  8
_2-3_植栽
  6
Continuous
 62
     6
100
AcDbLine
 10
223.3204078998464
 20
201.2102943643073
 30
0.0
 11
223.3204078998464
 21
198.2102943643073
 31
0.0
  0
LINE
  5
39F
330
6F
100
AcDbEntity
  8
_2-3_植栽
  6
Continuous
 62
     6
100
AcDbLine
 10
226.681539230529
 20
185.2102943643073
 30
0.0
 11
222.9204078998464
 21
185.2102943643073
 31
0.0
  0
LINE
  5
3A0
330
6F
100
AcDbEntity
  8
_2-3_植栽
  6
Continuous
 62
     6
100
AcDbLine
 10
222.9204078998464
 20
185.2102943643073
 30
0.0
 11
222.9204078998464
 21
165.2102943643073
 31
0.0
  0
LINE
  5
3A1
330
6F
100
AcDbEntity
  8
_2-3_植栽
  6
Continuous
 62
     6
100
AcDbLine
 10
168.9204078998467
 20
207.2102943643073
 30
0.0
 11
170.1204078998468
 21
207.2102943643073
 31
0.0
  0
LINE
  5
3A2
330
6F
100
AcDbEntity
  8
_2-3_植栽
  6
Continuous
 62
     6
100
AcDbLine
 10
170.1204078998468
 20
207.2102943643073
 30
0.0
 11
170.1204078998468
 21
206.0102943643073
 31
0.0
  0
LINE
  5
3A3
330
6F
100
AcDbEntity
  8
_2-3_植栽
  6
Continuous
 62
     6
100
AcDbLine
 10
170.1204078998468
 20
206.0102943643073
 30
0.0
 11
168.9204078998467
 21
206.0102943643073
 31
0.0
  0
LINE
  5
3A4
330
6F
100
AcDbEntity
  8
_2-3_植栽
  6
Continuous
 62
     6
100
AcDbLine
 10
168.9204078998467
 20
206.0102943643073
 30
0.0
 11
168.9204078998467
 21
207.2102943643073
 31
0.0
  0
LINE
  5
3A5
330
6F
100
AcDbEntity
  8
_2-3_植栽
  6
Continuous
 62
     6
100
AcDbLine
 10
91.8704078998466
 20
218.2102943643073
 30
0.0
 11
165.9704078998468
 21
218.2102943643073
 31
0.0
  0
LINE
  5
3A6
330
6F
100
AcDbEntity
  8
_2-3_植栽
  6
Continuous
 62
     6
100
AcDbLine
 10
194.8007558452882
 20
237.3889711366834
 30
0.0
 11
202.9204078998465
 21
236.219993992642
 31
0.0
  0
LINE
  5
3A7
330
6F
100
AcDbEntity
  8
_2-3_植栽
  6
Continuous
 62
     6
100
AcDbLine
 10
194.6886689782052
 20
237.4138921206717
 30
0.0
 11
170.2253500986467
 21
237.8221924028462
 31
0.0
  0
LINE
  5
3A8
330
6F
100
AcDbEntity
  8
_2-3_植栽
  6
Continuous
 62
     6
100
AcDbLine
 10
202.9204078998465
 20
236.219993992642
 30
0.0
 11
202.9204078998465
 21
234.1217336830892
 31
0.0
  0
LINE
  5
3A9
330
6F
100
AcDbEntity
  8
_2-3_植栽
  6
Continuous
 62
     6
100
AcDbLine
 10
218.6018904193736
 20
232.5820142834983
 30
0.0
 11
148.288736057174
 21
267.7385914690805
 31
0.0
  0
LINE
  5
3AA
330
6F
100
AcDbEntity
  8
_2-3_植栽
  6
Continuous
 62
     6
100
AcDbLine
 10
78.45207974251923
 20
233.0885914646627
 30
0.0
 11
147.7520797425193
 21
267.7385914690805
 31
0.0
  0
LINE
  5
3AB
330
6F
100
AcDbEntity
  8
_2-3_植栽
  6
Continuous
 62
     6
100
AcDbLine
 10
170.2253500986467
 20
237.8221924028462
 30
0.0
 11
170.2253500986467
 21
207.2102943643073
 31
0.0
  0
LINE
  5
3AC
330
6F
100
AcDbEntity
  8
_2-3_植栽
  6
Continuous
 62
     6
100
AcDbLine
 10
242.6666267062634
 20
205.9733499986194
 30
0.0
 11
206.9166267062636
 21
222.0608500001544
 31
0.0
  0
LINE
  5
3AD
330
6F
100
AcDbEntity
  8
_2-3_植栽
  6
Continuous
 62
     6
100
AcDbLine
 10
225.4204078998464
 20
209.8102943643072
 30
0.0
 11
225.4204078998464
 21
207.2102943643073
 31
0.0
  0
LINE
  5
3AE
330
6F
100
AcDbEntity
  8
_2-3_植栽
  6
Continuous
 62
     6
100
AcDbLine
 10
70.62040789984665
 20
204.2102943643073
 30
0.0
 11
70.62040789984665
 21
209.8102943643072
 31
0.0
  0
LINE
  5
3AF
330
6F
100
AcDbEntity
  8
_2-3_植栽
  6
Continuous
 62
     6
100
AcDbLine
 10
202.9204078998465
 20
207.8376184054436
 30
0.0
 11
202.9204078998465
 21
222.8361494505073
 31
0.0
  0
LINE
  5
3B0
330
6F
100
AcDbEntity
  8
_2-3_植栽
  6
Continuous
 62
     6
100
AcDbLine
 10
72.62040789984665
 20
209.8102943643073
 30
0.0
 11
72.62040789984665
 21
204.2102943643073
 31
0.0
  0
LINE
  5
3B1
330
6F
100
AcDbEntity
  8
_2-3_植栽
  6
Continuous
 62
     6
100
AcDbLine
 10
222.9204078998464
 20
165.2102943643073
 30
0.0
 11
89.37040789984655
 21
165.2102943643073
 31
0.0
  0
LINE
  5
3B2
330
6F
100
AcDbEntity
  8
_2-3_植栽
  6
Continuous
 62
     6
100
AcDbLine
 10
89.37040789984655
 20
164.0102943643073
 30
0.0
 11
72.82040789984666
 21
164.0102943643073
 31
0.0
  0
LINE
  5
3B3
330
6F
100
AcDbEntity
  8
_2-3_植栽
  6
Continuous
 62
     6
100
AcDbLine
 10
226.4393020796465
 20
184.9704731202973
 30
0.0
 11
226.4393020796465
 21
156.8102943643073
 31
0.0
  0
LINE
  5
3B4
330
6F
100
AcDbEntity
  8
_2-3_植栽
  6
Continuous
 62
     6
100
AcDbLine
 10
225.4204078998464
 20
201.2102943643073
 30
0.0
 11
225.4204078998464
 21
198.2102943643073
 31
0.0
  0
LINE
  5
3B5
330
6F
100
AcDbEntity
  8
_2-3_植栽
  6
Continuous
 62
     6
100
AcDbLine
 10
222.9204078998464
 20
198.2102943643073
 30
0.0
 11
226.0770171256524
 21
198.2102943643073
 31
0.0
  0
LINE
  5
3B6
330
6F
100
AcDbEntity
  8
_2-3_植栽
  6
Continuous
 62
     6
100
AcDbLine
 10
185.0204078998466
 20
207.2102943643073
 30
0.0
 11
223.2204078998313
 21
207.2102943643073
 31
0.0
  0
LINE
  5
3B7
330
6F
100
AcDbEntity
  8
_2-3_植栽
  6
Continuous
 62
     6
100
AcDbLine
 10
185.0203975016597
 20
207.8102943643073
 30
0.0
 11
202.9204078998465
 21
207.8102943643073
 31
0.0
  0
LINE
  5
3B8
330
6F
100
AcDbEntity
  8
_2-3_植栽
  6
Continuous
 62
     6
100
AcDbLine
 10
72.82040790066663
 20
212.2102943651273
 30
0.0
 11
89.73040789984656
 21
212.2102943651273
 31
0.0
  0
LINE
  5
3B9
330
6F
100
AcDbEntity
  8
_2-3_植栽
  6
Continuous
 62
     6
100
AcDbLine
 10
89.73040789984656
 20
207.2102943643073
 30
0.0
 11
89.73040789984656
 21
212.2102943651273
 31
0.0
  0
LINE
  5
3BA
330
6F
100
AcDbEntity
  8
_2-2_舗装
  6
Continuous
 62
     6
100
AcDbLine
 10
218.4147137060392
 20
232.0594975372426
 30
0.0
 11
218.660932512456
 21
232.6066504403389
 31
0.0
  0
LINE
  5
3BB
330
6F
100
AcDbEntity
  8
_2-2_舗装
  6
Continuous
 62
     6
100
AcDbLine
 10
216.226102093654
 20
233.0443727629099
 30
0.0
 11
218.4147137060392
 21
232.0594975372426
 31
0.0
  0
LINE
  5
3BC
330
6F
100
AcDbEntity
  8
_2-2_舗装
  6
Continuous
 62
     6
100
AcDbLine
 10
218.660932512456
 20
232.6066504403389
 30
0.0
 11
216.4723209000709
 21
233.5915256660062
 31
0.0
  0
LINE
  5
3BD
330
6F
100
AcDbEntity
  8
_2-2_舗装
  6
Continuous
 62
     6
100
AcDbLine
 10
216.4723209000709
 20
233.5915256660062
 30
0.0
 11
216.226102093654
 21
233.0443727629099
 31
0.0
  0
LINE
  5
3BE
330
6F
100
AcDbEntity
  8
_2-2_舗装
  6
Continuous
 62
     6
100
AcDbLine
 10
243.5147137060389
 20
204.933759482689
 30
0.0
 11
243.7609325124557
 21
205.4809123857853
 31
0.0
  0
LINE
  5
3BF
330
6F
100
AcDbEntity
  8
_2-2_舗装
  6
Continuous
 62
     6
100
AcDbLine
 10
241.3261020936539
 20
205.9186347083563
 30
0.0
 11
243.5147137060389
 21
204.933759482689
 31
0.0
  0
LINE
  5
3C0
330
6F
100
AcDbEntity
  8
_2-2_舗装
  6
Continuous
 62
     6
100
AcDbLine
 10
243.7609325124557
 20
205.4809123857853
 30
0.0
 11
241.5723209000707
 21
206.4657876114526
 31
0.0
  0
LINE
  5
3C1
330
6F
100
AcDbEntity
  8
_2-2_舗装
  6
Continuous
 62
     6
100
AcDbLine
 10
241.5723209000707
 20
206.4657876114526
 30
0.0
 11
241.3261020936539
 21
205.9186347083563
 31
0.0
  0
LINE
  5
3C2
330
6F
100
AcDbEntity
  8
_2-2_舗装
  6
Continuous
 62
     6
100
AcDbLine
 10
77.62610209365409
 20
232.0594975372426
 30
0.0
 11
77.3798832872373
 21
232.6066504403389
 31
0.0
  0
LINE
  5
3C3
330
6F
100
AcDbEntity
  8
_2-2_舗装
  6
Continuous
 62
     6
100
AcDbLine
 10
79.81471370603919
 20
233.0443727629099
 30
0.0
 11
77.62610209365409
 21
232.0594975372426
 31
0.0
  0
LINE
  5
3C4
330
6F
100
AcDbEntity
  8
_2-2_舗装
  6
Continuous
 62
     6
100
AcDbLine
 10
77.3798832872373
 20
232.6066504403389
 30
0.0
 11
79.56849489962235
 21
233.5915256660062
 31
0.0
  0
LINE
  5
3C5
330
6F
100
AcDbEntity
  8
_2-2_舗装
  6
Continuous
 62
     6
100
AcDbLine
 10
79.56849489962235
 20
233.5915256660062
 30
0.0
 11
79.81471370603919
 21
233.0443727629099
 31
0.0
  0
LINE
  5
3C6
330
6F
100
AcDbEntity
  8
_2-2_舗装
  6
Continuous
 62
     6
100
AcDbLine
 10
52.52610209365428
 20
204.933759482689
 30
0.0
 11
52.27988328723751
 21
205.4809123857853
 31
0.0
  0
LINE
  5
3C7
330
6F
100
AcDbEntity
  8
_2-2_舗装
  6
Continuous
 62
     6
100
AcDbLine
 10
54.71471370603939
 20
205.9186347083563
 30
0.0
 11
52.52610209365428
 21
204.933759482689
 31
0.0
  0
LINE
  5
3C8
330
6F
100
AcDbEntity
  8
_2-2_舗装
  6
Continuous
 62
     6
100
AcDbLine
 10
52.27988328723751
 20
205.4809123857853
 30
0.0
 11
54.46849489962256
 21
206.4657876114526
 31
0.0
  0
LINE
  5
3C9
330
6F
100
AcDbEntity
  8
_2-2_舗装
  6
Continuous
 62
     6
100
AcDbLine
 10
54.46849489962256
 20
206.4657876114526
 30
0.0
 11
54.71471370603939
 21
205.9186347083563
 31
0.0
  0
LINE
  5
3CA
330
6F
100
AcDbEntity
  8
_2-3_植栽
  6
Continuous
 62
     6
100
AcDbLine
 10
202.9204078998465
 20
234.1217336830892
 30
0.0
 11
207.2204078998466
 21
234.1217336830892
 31
0.0
  0
LINE
  5
3CB
330
6F
100
AcDbEntity
  8
_2-3_植栽
  6
Continuous
 62
     6
100
AcDbLine
 10
205.8204078998466
 20
233.6845270564892
 30
0.0
 11
207.2204078998466
 21
233.6845270564892
 31
0.0
  0
LINE
  5
3CC
330
6F
100
AcDbEntity
  8
_2-3_植栽
  6
Continuous
 62
     6
100
AcDbLine
 10
89.57040789984656
 20
234.5102943643074
 30
0.0
 11
89.57040789984656
 21
222.2616484630612
 31
0.0
  0
LINE
  5
3CD
330
6F
100
AcDbEntity
  8
_2-3_植栽
  6
Continuous
 62
     6
100
AcDbLine
 10
53.37418909342989
 20
205.9733499986194
 30
0.0
 11
89.57040789984656
 21
222.2616484630611
 31
0.0
  0
LINE
  5
3CE
330
6F
100
AcDbEntity
  8
_2-3_植栽
  6
Continuous
 62
     6
100
AcDbLine
 10
89.57040789984656
 20
222.9195998290556
 30
0.0
 11
87.72040789984657
 21
222.0870998289761
 31
0.0
  0
LINE
  5
3CF
330
6F
100
AcDbEntity
  8
_2-3_植栽
  6
Continuous
 62
     6
100
AcDbLine
 10
87.72040789984657
 20
222.0870998289761
 30
0.0
 11
87.72040789984657
 21
221.4291484629817
 31
0.0
  0
LINE
  5
3D0
330
6F
100
AcDbEntity
  8
_2-3_植栽
  6
Continuous
 62
     6
100
AcDbLine
 10
208.3204078998467
 20
222.0870998289761
 30
0.0
 11
208.3204078998467
 21
221.4291484629817
 31
0.0
  0
LINE
  5
3D1
330
6F
100
AcDbEntity
  8
_2-3_植栽
  6
Continuous
 62
     6
100
AcDbLine
 10
207.2204078998466
 20
223.2512111099073
 30
0.0
 11
205.8204078998466
 21
223.2512111099073
 31
0.0
  0
LINE
  5
3D2
330
6F
100
AcDbEntity
  8
_2-3_植栽
  6
Continuous
 62
     6
100
AcDbLine
 10
207.2782305546174
 20
222.8361494505073
 30
0.0
 11
202.9204078998465
 21
222.8361494505073
 31
0.0
  0
LINE
  5
3D3
330
6F
100
AcDbEntity
  8
_2-3_植栽
  6
Continuous
 62
     6
100
AcDbLine
 10
207.2782305546174
 20
223.1215742237318
 30
0.0
 11
207.2782305546174
 21
222.556079634374
 31
0.0
  0
LINE
  5
3D4
330
6F
100
AcDbEntity
  8
_2-3_植栽
  6
Continuous
 62
     6
100
AcDbLine
 10
207.2204078998466
 20
234.1217336830892
 30
0.0
 11
207.2204078998466
 21
233.6845270564892
 31
0.0
  0
LINE
  5
3D5
330
6F
100
AcDbEntity
  8
_2-3_植栽
  6
Continuous
 62
     6
100
AcDbLine
 10
205.8204078998466
 20
234.0995887159677
 30
0.0
 11
205.8204078998466
 21
233.6845270564892
 31
0.0
  0
LINE
  5
3D6
330
6F
100
AcDbEntity
  8
_2-3_植栽
  6
Continuous
 62
     6
100
AcDbLine
 10
147.2586822234852
 20
268.9481317704501
 30
0.0
 11
146.8553491178348
 21
268.7464652175992
 31
0.0
  0
LINE
  5
3D7
330
6F
100
AcDbEntity
  8
_2-3_植栽
  6
Continuous
 62
     6
100
AcDbLine
 10
148.7821335762081
 20
268.9481317704501
 30
0.0
 11
149.1854666818584
 21
268.7464652175992
 31
0.0
  0
LINE
  5
3D8
330
6F
100
AcDbEntity
  8
_2-3_植栽
  6
Continuous
 62
     6
100
AcDbLine
 10
146.8553491178348
 20
268.7464652175992
 30
0.0
 11
146.7223083377409
 21
267.2085994257622
 31
0.0
  0
LINE
  5
3D9
330
6F
100
AcDbEntity
  8
_2-3_植栽
  6
Continuous
 62
     6
100
AcDbLine
 10
149.1854666818584
 20
268.7464652175992
 30
0.0
 11
149.3185074619524
 21
267.2085994257622
 31
0.0
  0
LINE
  5
3DA
330
6F
100
AcDbEntity
  8
_2-3_植栽
  6
Continuous
 62
     6
100
AcDbLine
 10
70.42040789984669
 20
201.2102943643073
 30
0.0
 11
68.82040789984666
 21
201.2102943643073
 31
0.0
  0
LINE
  5
3DB
330
6F
100
AcDbEntity
  8
_2-3_植栽
  6
Continuous
 62
     6
100
AcDbLine
 10
68.82040789984666
 20
201.2102943643073
 30
0.0
 11
68.82040789984666
 21
201.9102943643073
 31
0.0
  0
LINE
  5
3DC
330
6F
100
AcDbEntity
  8
_2-3_植栽
  6
Continuous
 62
     6
100
AcDbLine
 10
68.82040789984666
 20
201.9102943643073
 30
0.0
 11
70.42040789984669
 21
201.9102943643073
 31
0.0
  0
LINE
  5
3DD
330
6F
100
AcDbEntity
  8
_2-3_植栽
  6
Continuous
 62
     6
100
AcDbLine
 10
70.42040789984669
 20
201.9102943643073
 30
0.0
 11
70.42040789984669
 21
201.2102943643073
 31
0.0
  0
LINE
  5
3DE
330
6F
100
AcDbEntity
  8
_2-3_植栽
  6
Continuous
 62
     6
100
AcDbLine
 10
70.42040789984669
 20
163.7102943643073
 30
0.0
 11
68.82040789984666
 21
163.7102943643073
 31
0.0
  0
LINE
  5
3DF
330
6F
100
AcDbEntity
  8
_2-3_植栽
  6
Continuous
 62
     6
100
AcDbLine
 10
68.82040789984666
 20
163.7102943643073
 30
0.0
 11
68.82040789984666
 21
163.0102943643073
 31
0.0
  0
LINE
  5
3E0
330
6F
100
AcDbEntity
  8
_2-3_植栽
  6
Continuous
 62
     6
100
AcDbLine
 10
68.82040789984666
 20
163.0102943643073
 30
0.0
 11
70.42040789984669
 21
163.0102943643073
 31
0.0
  0
LINE
  5
3E1
330
6F
100
AcDbEntity
  8
_2-3_植栽
  6
Continuous
 62
     6
100
AcDbLine
 10
70.42040789984669
 20
163.0102943643073
 30
0.0
 11
70.42040789984669
 21
163.7102943643073
 31
0.0
  0
LINE
  5
3E2
330
6F
100
AcDbEntity
  8
_2-3_植栽
  6
Continuous
 62
     6
100
AcDbLine
 10
91.77040789984658
 20
234.5102943643074
 30
0.0
 11
91.77040789984658
 21
218.2102943643073
 31
0.0
  0
LINE
  5
3E3
330
6F
100
AcDbEntity
  8
_2-3_植栽
  6
Continuous
 62
     6
100
AcDbLine
 10
165.9704078998468
 20
207.2102943643073
 30
0.0
 11
165.9704078998468
 21
232.4102943643073
 31
0.0
  0
CIRCLE
  5
3E4
330
6F
100
AcDbEntity
  8
_2-D_寸法
 62
     4
100
AcDbCircle
 10
245.0556715384448
 20
165.2102943643073
 30
0.0
 40
0.4
  0
LINE
  5
3E5
330
6F
100
AcDbEntity
  8
_2-D_寸法
  6
Continuous
 62
     4
100
AcDbLine
 10
245.0556715384448
 20
207.2102943643073
 30
0.0
 11
244.5380334482397
 21
205.2784427117292
 31
0.0
  0
LINE
  5
3E6
330
6F
100
AcDbEntity
  8
_2-D_寸法
  6
Continuous
 62
     4
100
AcDbLine
 10
245.0556715384448
 20
207.2102943643073
 30
0.0
 11
245.5733096286499
 21
205.2784427117292
 31
0.0
  0
LINE
  5
3E7
330
6F
100
AcDbEntity
  8
_2-D_寸法
  6
Continuous
 62
     4
100
AcDbLine
 10
245.0556715384448
 20
165.2102943643073
 30
0.0
 11
235.847237879435
 21
165.2102943643073
 31
0.0
  0
LINE
  5
3E8
330
6F
100
AcDbEntity
  8
_2-D_寸法
  6
Continuous
 62
     4
100
AcDbLine
 10
245.0556715384448
 20
207.2102943643073
 30
0.0
 11
235.847237879435
 21
207.2102943643073
 31
0.0
  0
LINE
  5
3E9
330
6F
100
AcDbEntity
  8
_2-D_寸法
  6
Continuous
 62
    18
100
AcDbLine
 10
245.0556715384448
 20
165.2102943643073
 30
0.0
 11
245.0556715384448
 21
207.2102943643073
 31
0.0
  0
TEXT
  5
3EA
330
6F
100
AcDbEntity
  8
_2-D_寸法
 62
     3
100
AcDbText
 10
245.5556715384448
 20
207.7102943643073
 30
0.0
 40
2.5
  1
2,100
 41
0.8
100
AcDbText
  0
LINE
  5
3EB
330
6F
100
AcDbEntity
  8
_2-D_寸法
  6
Continuous
 62
     4
100
AcDbLine
 10
245.0556715384448
 20
237.2102943643073
 30
0.0
 11
244.5380334482397
 21
235.2784427117292
 31
0.0
  0
LINE
  5
3EC
330
6F
100
AcDbEntity
  8
_2-D_寸法
  6
Continuous
 62
     4
100
AcDbLine
 10
245.0556715384448
 20
237.2102943643073
 30
0.0
 11
245.5733096286499
 21
235.2784427117292
 31
0.0
  0
LINE
  5
3ED
330
6F
100
AcDbEntity
  8
_2-D_寸法
  6
Continuous
 62
     4
100
AcDbLine
 10
245.0556715384448
 20
237.2102943643073
 30
0.0
 11
235.847237879435
 21
237.2102943643073
 31
0.0
  0
LINE
  5
3EE
330
6F
100
AcDbEntity
  8
_2-D_寸法
  6
Continuous
 62
    18
100
AcDbLine
 10
245.0556715384448
 20
165.2102943643073
 30
0.0
 11
245.0556715384448
 21
237.2102943643073
 31
0.0
  0
TEXT
  5
3EF
330
6F
100
AcDbEntity
  8
_2-D_寸法
 62
     3
100
AcDbText
 10
245.5556715384448
 20
237.7102943643073
 30
0.0
 40
2.5
  1
3,600
 41
0.8
100
AcDbText
  0
CIRCLE
  5
3F0
330
6F
100
AcDbEntity
  8
_2-D_寸法
 62
     4
100
AcDbCircle
 10
245.0556715384448
 20
165.2102943643073
 30
0.0
 40
0.4
  0
LINE
  5
3F1
330
6F
100
AcDbEntity
  8
_2-D_寸法
  6
Continuous
 62
     4
100
AcDbLine
 10
245.0556715384448
 20
165.2102943643073
 30
0.0
 11
236.972421235005
 21
165.2102943643073
 31
0.0
  0
LINE
  5
3F2
330
6F
100
AcDbEntity
  8
_2-D_寸法
  6
Continuous
 62
     4
100
AcDbLine
 10
245.0556715384448
 20
212.2102943651273
 30
0.0
 11
244.5380334482397
 21
210.2784427125491
 31
0.0
  0
LINE
  5
3F3
330
6F
100
AcDbEntity
  8
_2-D_寸法
  6
Continuous
 62
     4
100
AcDbLine
 10
245.0556715384448
 20
212.2102943651273
 30
0.0
 11
245.5733096286499
 21
210.2784427125491
 31
0.0
  0
LINE
  5
3F4
330
6F
100
AcDbEntity
  8
_2-D_寸法
  6
Continuous
 62
     4
100
AcDbLine
 10
245.0556715384448
 20
212.2102943651273
 30
0.0
 11
236.972421235005
 21
212.2102943651273
 31
0.0
  0
LINE
  5
3F5
330
6F
100
AcDbEntity
  8
_2-D_寸法
  6
Continuous
 62
    18
100
AcDbLine
 10
245.0556715384448
 20
165.2102943643073
 30
0.0
 11
245.0556715384448
 21
212.2102943651273
 31
0.0
  0
TEXT
  5
3F6
330
6F
100
AcDbEntity
  8
_2-D_寸法
 62
     3
100
AcDbText
 10
245.5556715384448
 20
212.7102943651272
 30
0.0
 40
2.5
  1
2,350
 41
0.8
100
AcDbText
  0
CIRCLE
  5
3F7
330
6F
100
AcDbEntity
  8
_2-D_寸法
 62
     4
100
AcDbCircle
 10
245.0556715384448
 20
165.2102943643073
 30
0.0
 40
0.4
  0
LINE
  5
3F8
330
6F
100
AcDbEntity
  8
_2-D_寸法
  6
Continuous
 62
     4
100
AcDbLine
 10
245.0556715384448
 20
265.8602943643073
 30
0.0
 11
244.5380334482397
 21
263.9284427117292
 31
0.0
  0
LINE
  5
3F9
330
6F
100
AcDbEntity
  8
_2-D_寸法
  6
Continuous
 62
     4
100
AcDbLine
 10
245.0556715384448
 20
265.8602943643073
 30
0.0
 11
245.5733096286499
 21
263.9284427117292
 31
0.0
  0
LINE
  5
3FA
330
6F
100
AcDbEntity
  8
_2-D_寸法
  6
Continuous
 62
     4
100
AcDbLine
 10
245.0556715384448
 20
165.2102943643073
 30
0.0
 11
238.8565058352813
 21
165.2102943643073
 31
0.0
  0
LINE
  5
3FB
330
6F
100
AcDbEntity
  8
_2-D_寸法
  6
Continuous
 62
     4
100
AcDbLine
 10
245.0556715384448
 20
265.8602943643073
 30
0.0
 11
238.8565058352813
 21
265.8602943643073
 31
0.0
  0
LINE
  5
3FC
330
6F
100
AcDbEntity
  8
_2-D_寸法
  6
Continuous
 62
    18
100
AcDbLine
 10
245.0556715384448
 20
165.2102943643073
 30
0.0
 11
245.0556715384448
 21
265.8602943643073
 31
0.0
  0
TEXT
  5
3FD
330
6F
100
AcDbEntity
  8
_2-D_寸法
 62
     3
100
AcDbText
 10
245.5556715384448
 20
266.3602943643073
 30
0.0
 40
2.5
  1
5,032.5
 41
0.8
100
AcDbText
  0
CIRCLE
  5
3FE
330
6F
100
AcDbEntity
  8
_2-D_寸法
 62
     4
100
AcDbCircle
 10
245.0556715384448
 20
165.2102943643073
 30
0.0
 40
0.4
  0
LINE
  5
3FF
330
6F
100
AcDbEntity
  8
_2-D_寸法
  6
Continuous
 62
     4
100
AcDbLine
 10
245.0556715384448
 20
163.7102943643073
 30
0.0
 11
245.5733096286499
 21
165.6421460168854
 31
0.0
  0
LINE
  5
400
330
6F
100
AcDbEntity
  8
_2-D_寸法
  6
Continuous
 62
     4
100
AcDbLine
 10
245.0556715384448
 20
163.7102943643073
 30
0.0
 11
244.5380334482397
 21
165.6421460168854
 31
0.0
  0
LINE
  5
401
330
6F
100
AcDbEntity
  8
_2-D_寸法
  6
Continuous
 62
     4
100
AcDbLine
 10
245.0556715384448
 20
165.2102943643073
 30
0.0
 11
238.4799866208971
 21
165.2102943643073
 31
0.0
  0
LINE
  5
402
330
6F
100
AcDbEntity
  8
_2-D_寸法
  6
Continuous
 62
     4
100
AcDbLine
 10
245.0556715384448
 20
163.7102943643073
 30
0.0
 11
238.4799866208971
 21
163.7102943643073
 31
0.0
  0
LINE
  5
403
330
6F
100
AcDbEntity
  8
_2-D_寸法
  6
Continuous
 62
     4
100
AcDbLine
 10
245.0556715384448
 20
156.8102943643073
 30
0.0
 11
245.5733096286499
 21
158.7421460168854
 31
0.0
  0
LINE
  5
404
330
6F
100
AcDbEntity
  8
_2-D_寸法
  6
Continuous
 62
     4
100
AcDbLine
 10
245.0556715384448
 20
156.8102943643073
 30
0.0
 11
244.5380334482397
 21
158.7421460168854
 31
0.0
  0
LINE
  5
405
330
6F
100
AcDbEntity
  8
_2-D_寸法
  6
Continuous
 62
     4
100
AcDbLine
 10
245.0556715384448
 20
156.8102943643073
 30
0.0
 11
238.4799866208971
 21
156.8102943643073
 31
0.0
  0
LINE
  5
406
330
6F
100
AcDbEntity
  8
_2-D_寸法
  6
Continuous
 62
    18
100
AcDbLine
 10
245.0556715384448
 20
165.2102943643073
 30
0.0
 11
245.0556715384448
 21
156.8102943643073
 31
0.0
  0
TEXT
  5
407
330
6F
100
AcDbEntity
  8
_2-D_寸法
 62
     3
100
AcDbText
 10
245.5556715384448
 20
157.3102943643073
 30
0.0
 40
2.5
  1
420
 41
0.8
100
AcDbText
  0
LINE
  5
408
330
6F
100
AcDbEntity
  8
_2-D_寸法
  6
Continuous
 62
     4
100
AcDbLine
 10
245.0556715384448
 20
153.2102943643073
 30
0.0
 11
245.5733096286499
 21
155.1421460168854
 31
0.0
  0
LINE
  5
409
330
6F
100
AcDbEntity
  8
_2-D_寸法
  6
Continuous
 62
     4
100
AcDbLine
 10
245.0556715384448
 20
153.2102943643073
 30
0.0
 11
244.5380334482397
 21
155.1421460168854
 31
0.0
  0
LINE
  5
40A
330
6F
100
AcDbEntity
  8
_2-D_寸法
  6
Continuous
 62
    18
100
AcDbLine
 10
245.0556715384448
 20
165.2102943643073
 30
0.0
 11
245.0556715384448
 21
153.2102943643073
 31
0.0
  0
TEXT
  5
40B
330
6F
100
AcDbEntity
  8
_2-D_寸法
 62
     3
100
AcDbText
 10
245.5556715384448
 20
153.7102943643073
 30
0.0
 40
2.5
  1
600
 41
0.8
100
AcDbText
  0
LINE
  5
40C
330
6F
100
AcDbEntity
  8
_2-D_寸法
  6
Continuous
 62
    18
100
AcDbLine
 10
245.0556715384448
 20
165.2102943643073
 30
0.0
 11
245.0556715384448
 21
163.7102943643073
 31
0.0
  0
TEXT
  5
40D
330
6F
100
AcDbEntity
  8
_2-D_寸法
 62
     3
100
AcDbText
 10
245.4939655775716
 20
162.5626695453541
 30
0.0
 40
2.5
  1
75
 41
0.8
100
AcDbText
  0
CIRCLE
  5
40E
330
6F
100
AcDbEntity
  8
_2-D_寸法
 62
     4
100
AcDbCircle
 10
157.0231589658654
 20
165.2102943643073
 30
0.0
 40
0.4
  0
CIRCLE
  5
40F
330
6F
100
AcDbEntity
  8
_2-D_寸法
 62
     4
100
AcDbCircle
 10
157.0231589658654
 20
201.2102943643073
 30
0.0
 40
0.4
  0
LINE
  5
410
330
6F
100
AcDbEntity
  8
_2-D_寸法
  6
Continuous
 62
    18
100
AcDbLine
 10
157.0231589658654
 20
165.2102943643073
 30
0.0
 11
157.0231589658654
 21
201.2102943643073
 31
0.0
  0
TEXT
  5
411
330
6F
100
AcDbEntity
  8
_2-D_寸法
 62
     3
100
AcDbText
 10
156.5231589658654
 20
180.6102943643073
 30
0.0
 40
2.5
  1
1,800
 50
90.0
 41
0.8
100
AcDbText
  0
CIRCLE
  5
412
330
6F
100
AcDbEntity
  8
_2-D_寸法
 62
     4
100
AcDbCircle
 10
157.0231589658654
 20
207.2102943643073
 30
0.0
 40
0.4
  0
LINE
  5
413
330
6F
100
AcDbEntity
  8
_2-D_寸法
  6
Continuous
 62
    18
100
AcDbLine
 10
157.0231589658654
 20
201.2102943643073
 30
0.0
 11
157.0231589658654
 21
207.2102943643073
 31
0.0
  0
TEXT
  5
414
330
6F
100
AcDbEntity
  8
_2-D_寸法
 62
     3
100
AcDbText
 10
156.5231589658654
 20
202.6602943643073
 30
0.0
 40
2.5
  1
300
 50
90.0
 41
0.8
100
AcDbText
  0
CIRCLE
  5
415
330
6F
100
AcDbEntity
  8
_2-D_寸法
 62
     4
100
AcDbCircle
 10
71.62040789984665
 20
123.4304830843073
 30
0.0
 40
0.4
  0
CIRCLE
  5
416
330
6F
100
AcDbEntity
  8
_2-D_寸法
 62
     4
100
AcDbCircle
 10
224.4204078998464
 20
123.4304830843073
 30
0.0
 40
0.4
  0
LINE
  5
417
330
6F
100
AcDbEntity
  8
_2-D_寸法
  6
Continuous
 62
     4
100
AcDbLine
 10
71.62040789984665
 20
123.4304830843073
 30
0.0
 11
71.62040789984665
 21
127.4304830843073
 31
0.0
  0
LINE
  5
418
330
6F
100
AcDbEntity
  8
_2-D_寸法
  6
Continuous
 62
     4
100
AcDbLine
 10
224.4204078998464
 20
123.4304830843073
 30
0.0
 11
224.4204078998464
 21
127.4304830843073
 31
0.0
  0
LINE
  5
419
330
6F
100
AcDbEntity
  8
_2-D_寸法
  6
Continuous
 62
    18
100
AcDbLine
 10
71.62040789984665
 20
123.4304830843073
 30
0.0
 11
224.4204078998464
 21
123.4304830843073
 31
0.0
  0
TEXT
  5
41A
330
6F
100
AcDbEntity
  8
_2-D_寸法
 62
     3
100
AcDbText
 10
145.4204078998465
 20
123.9304830843073
 30
0.0
 40
2.5
  1
7,640
 41
0.8
100
AcDbText
  0
CIRCLE
  5
41B
330
6F
100
AcDbEntity
  8
_2-D_寸法
 62
     4
100
AcDbCircle
 10
71.62040789984665
 20
127.4304830843073
 30
0.0
 40
0.4
  0
CIRCLE
  5
41C
330
6F
100
AcDbEntity
  8
_2-D_寸法
 62
     4
100
AcDbCircle
 10
90.72040789984654
 20
127.4304830843073
 30
0.0
 40
0.4
  0
LINE
  5
41D
330
6F
100
AcDbEntity
  8
_2-D_寸法
  6
Continuous
 62
     4
100
AcDbLine
 10
71.62040789984665
 20
127.4304830843073
 30
0.0
 11
71.62040789984665
 21
131.4304830843073
 31
0.0
  0
LINE
  5
41E
330
6F
100
AcDbEntity
  8
_2-D_寸法
  6
Continuous
 62
     4
100
AcDbLine
 10
90.72040789984654
 20
127.4304830843073
 30
0.0
 11
90.72040789984654
 21
131.4304830843073
 31
0.0
  0
LINE
  5
41F
330
6F
100
AcDbEntity
  8
_2-D_寸法
  6
Continuous
 62
    18
100
AcDbLine
 10
71.62040789984665
 20
127.4304830843073
 30
0.0
 11
90.72040789984654
 21
127.4304830843073
 31
0.0
  0
TEXT
  5
420
330
6F
100
AcDbEntity
  8
_2-D_寸法
 62
     3
100
AcDbText
 10
79.62040789984661
 20
127.9304830843073
 30
0.0
 40
2.5
  1
955
 41
0.8
100
AcDbText
  0
CIRCLE
  5
421
330
6F
100
AcDbEntity
  8
_2-D_寸法
 62
     4
100
AcDbCircle
 10
109.8204078998465
 20
127.4304830843073
 30
0.0
 40
0.4
  0
LINE
  5
422
330
6F
100
AcDbEntity
  8
_2-D_寸法
  6
Continuous
 62
     4
100
AcDbLine
 10
109.8204078998465
 20
127.4304830843073
 30
0.0
 11
109.8204078998465
 21
131.4304830843073
 31
0.0
  0
LINE
  5
423
330
6F
100
AcDbEntity
  8
_2-D_寸法
  6
Continuous
 62
    18
100
AcDbLine
 10
90.72040789984654
 20
127.4304830843073
 30
0.0
 11
109.8204078998465
 21
127.4304830843073
 31
0.0
  0
TEXT
  5
424
330
6F
100
AcDbEntity
  8
_2-D_寸法
 62
     3
100
AcDbText
 10
98.72040789984652
 20
127.9304830843073
 30
0.0
 40
2.5
  1
955
 41
0.8
100
AcDbText
  0
CIRCLE
  5
425
330
6F
100
AcDbEntity
  8
_2-D_寸法
 62
     4
100
AcDbCircle
 10
128.9204078998464
 20
127.4304830843073
 30
0.0
 40
0.4
  0
LINE
  5
426
330
6F
100
AcDbEntity
  8
_2-D_寸法
  6
Continuous
 62
     4
100
AcDbLine
 10
128.9204078998464
 20
127.4304830843073
 30
0.0
 11
128.9204078998464
 21
131.4304830843073
 31
0.0
  0
LINE
  5
427
330
6F
100
AcDbEntity
  8
_2-D_寸法
  6
Continuous
 62
    18
100
AcDbLine
 10
109.8204078998465
 20
127.4304830843073
 30
0.0
 11
128.9204078998464
 21
127.4304830843073
 31
0.0
  0
TEXT
  5
428
330
6F
100
AcDbEntity
  8
_2-D_寸法
 62
     3
100
AcDbText
 10
117.8204078998464
 20
127.9304830843073
 30
0.0
 40
2.5
  1
955
 41
0.8
100
AcDbText
  0
CIRCLE
  5
429
330
6F
100
AcDbEntity
  8
_2-D_寸法
 62
     4
100
AcDbCircle
 10
148.0204078998466
 20
127.4304830843073
 30
0.0
 40
0.4
  0
LINE
  5
42A
330
6F
100
AcDbEntity
  8
_2-D_寸法
  6
Continuous
 62
     4
100
AcDbLine
 10
148.0204078998466
 20
127.4304830843073
 30
0.0
 11
148.0204078998466
 21
131.4304830843073
 31
0.0
  0
LINE
  5
42B
330
6F
100
AcDbEntity
  8
_2-D_寸法
  6
Continuous
 62
    18
100
AcDbLine
 10
128.9204078998464
 20
127.4304830843073
 30
0.0
 11
148.0204078998466
 21
127.4304830843073
 31
0.0
  0
TEXT
  5
42C
330
6F
100
AcDbEntity
  8
_2-D_寸法
 62
     3
100
AcDbText
 10
136.9204078998465
 20
127.9304830843073
 30
0.0
 40
2.5
  1
955
 41
0.8
100
AcDbText
  0
CIRCLE
  5
42D
330
6F
100
AcDbEntity
  8
_2-D_寸法
 62
     4
100
AcDbCircle
 10
167.1204078998468
 20
127.4304830843073
 30
0.0
 40
0.4
  0
LINE
  5
42E
330
6F
100
AcDbEntity
  8
_2-D_寸法
  6
Continuous
 62
     4
100
AcDbLine
 10
167.1204078998468
 20
127.4304830843073
 30
0.0
 11
167.1204078998468
 21
131.4304830843073
 31
0.0
  0
LINE
  5
42F
330
6F
100
AcDbEntity
  8
_2-D_寸法
  6
Continuous
 62
    18
100
AcDbLine
 10
148.0204078998466
 20
127.4304830843073
 30
0.0
 11
167.1204078998468
 21
127.4304830843073
 31
0.0
  0
TEXT
  5
430
330
6F
100
AcDbEntity
  8
_2-D_寸法
 62
     3
100
AcDbText
 10
156.0204078998467
 20
127.9304830843073
 30
0.0
 40
2.5
  1
955
 41
0.8
100
AcDbText
  0
CIRCLE
  5
431
330
6F
100
AcDbEntity
  8
_2-D_寸法
 62
     4
100
AcDbCircle
 10
186.2204078998466
 20
127.4304830843073
 30
0.0
 40
0.4
  0
LINE
  5
432
330
6F
100
AcDbEntity
  8
_2-D_寸法
  6
Continuous
 62
     4
100
AcDbLine
 10
186.2204078998466
 20
127.4304830843073
 30
0.0
 11
186.2204078998466
 21
131.4304830843073
 31
0.0
  0
LINE
  5
433
330
6F
100
AcDbEntity
  8
_2-D_寸法
  6
Continuous
 62
    18
100
AcDbLine
 10
167.1204078998468
 20
127.4304830843073
 30
0.0
 11
186.2204078998466
 21
127.4304830843073
 31
0.0
  0
TEXT
  5
434
330
6F
100
AcDbEntity
  8
_2-D_寸法
 62
     3
100
AcDbText
 10
175.1204078998467
 20
127.9304830843073
 30
0.0
 40
2.5
  1
955
 41
0.8
100
AcDbText
  0
CIRCLE
  5
435
330
6F
100
AcDbEntity
  8
_2-D_寸法
 62
     4
100
AcDbCircle
 10
205.3204078998466
 20
127.4304830843073
 30
0.0
 40
0.4
  0
LINE
  5
436
330
6F
100
AcDbEntity
  8
_2-D_寸法
  6
Continuous
 62
     4
100
AcDbLine
 10
205.3204078998466
 20
127.4304830843073
 30
0.0
 11
205.3204078998466
 21
131.4304830843073
 31
0.0
  0
LINE
  5
437
330
6F
100
AcDbEntity
  8
_2-D_寸法
  6
Continuous
 62
    18
100
AcDbLine
 10
186.2204078998466
 20
127.4304830843073
 30
0.0
 11
205.3204078998466
 21
127.4304830843073
 31
0.0
  0
TEXT
  5
438
330
6F
100
AcDbEntity
  8
_2-D_寸法
 62
     3
100
AcDbText
 10
194.2204078998466
 20
127.9304830843073
 30
0.0
 40
2.5
  1
955
 41
0.8
100
AcDbText
  0
CIRCLE
  5
439
330
6F
100
AcDbEntity
  8
_2-D_寸法
 62
     4
100
AcDbCircle
 10
224.4204078998464
 20
127.4304830843073
 30
0.0
 40
0.4
  0
LINE
  5
43A
330
6F
100
AcDbEntity
  8
_2-D_寸法
  6
Continuous
 62
     4
100
AcDbLine
 10
224.4204078998464
 20
127.4304830843073
 30
0.0
 11
224.4204078998464
 21
131.4304830843073
 31
0.0
  0
LINE
  5
43B
330
6F
100
AcDbEntity
  8
_2-D_寸法
  6
Continuous
 62
    18
100
AcDbLine
 10
205.3204078998466
 20
127.4304830843073
 30
0.0
 11
224.4204078998464
 21
127.4304830843073
 31
0.0
  0
TEXT
  5
43C
330
6F
100
AcDbEntity
  8
_2-D_寸法
 62
     3
100
AcDbText
 10
213.3204078998465
 20
127.9304830843073
 30
0.0
 40
2.5
  1
955
 41
0.8
100
AcDbText
  0
CIRCLE
  5
43D
330
6F
100
AcDbEntity
  8
_2-D_寸法
 62
     4
100
AcDbCircle
 10
71.62040789984665
 20
231.4610260527431
 30
0.0
 40
0.4
  0
CIRCLE
  5
43E
330
6F
100
AcDbEntity
  8
_2-D_寸法
 62
     4
100
AcDbCircle
 10
53.62040789984666
 20
231.4610260527431
 30
0.0
 40
0.4
  0
LINE
  5
43F
330
6F
100
AcDbEntity
  8
_2-D_寸法
  6
Continuous
 62
     4
100
AcDbLine
 10
71.62040789984665
 20
231.4610260527431
 30
0.0
 11
71.62040789984665
 21
225.0438041789267
 31
0.0
  0
LINE
  5
440
330
6F
100
AcDbEntity
  8
_2-D_寸法
  6
Continuous
 62
     4
100
AcDbLine
 10
53.62040789984666
 20
231.4610260527431
 30
0.0
 11
53.62040789984666
 21
225.0438041789267
 31
0.0
  0
LINE
  5
441
330
6F
100
AcDbEntity
  8
_2-D_寸法
  6
Continuous
 62
    18
100
AcDbLine
 10
71.62040789984665
 20
231.4610260527431
 30
0.0
 11
53.62040789984666
 21
231.4610260527431
 31
0.0
  0
TEXT
  5
442
330
6F
100
AcDbEntity
  8
_2-D_寸法
 62
     3
100
AcDbText
 10
61.07040789984665
 20
231.9610260527432
 30
0.0
 40
2.5
  1
900
 41
0.8
100
AcDbText
  0
CIRCLE
  5
443
330
6F
100
AcDbEntity
  8
_2-D_寸法
 62
     4
100
AcDbCircle
 10
224.4204078998466
 20
231.4610260527431
 30
0.0
 40
0.4
  0
CIRCLE
  5
444
330
6F
100
AcDbEntity
  8
_2-D_寸法
 62
     4
100
AcDbCircle
 10
242.4204078998466
 20
231.4610260527431
 30
0.0
 40
0.4
  0
LINE
  5
445
330
6F
100
AcDbEntity
  8
_2-D_寸法
  6
Continuous
 62
     4
100
AcDbLine
 10
224.4204078998466
 20
231.4610260527431
 30
0.0
 11
224.4204078998466
 21
225.0438041789267
 31
0.0
  0
LINE
  5
446
330
6F
100
AcDbEntity
  8
_2-D_寸法
  6
Continuous
 62
     4
100
AcDbLine
 10
242.4204078998466
 20
231.4610260527431
 30
0.0
 11
242.4204078998466
 21
225.0438041789267
 31
0.0
  0
LINE
  5
447
330
6F
100
AcDbEntity
  8
_2-D_寸法
  6
Continuous
 62
    18
100
AcDbLine
 10
224.4204078998466
 20
231.4610260527431
 30
0.0
 11
242.4204078998466
 21
231.4610260527431
 31
0.0
  0
TEXT
  5
448
330
6F
100
AcDbEntity
  8
_2-D_寸法
 62
     3
100
AcDbText
 10
231.8704078998466
 20
231.9610260527432
 30
0.0
 40
2.5
  1
900
 41
0.8
100
AcDbText
  0
CIRCLE
  5
449
330
6F
100
AcDbEntity
  8
_2-D_寸法
 62
     4
100
AcDbCircle
 10
90.72040789984654
 20
245.0693859897365
 30
0.0
 40
0.4
  0
CIRCLE
  5
44A
330
6F
100
AcDbEntity
  8
_2-D_寸法
 62
     4
100
AcDbCircle
 10
78.72040789984658
 20
245.0693859897365
 30
0.0
 40
0.4
  0
LINE
  5
44B
330
6F
100
AcDbEntity
  8
_2-D_寸法
  6
Continuous
 62
     4
100
AcDbLine
 10
90.72040789984654
 20
245.0693859897365
 30
0.0
 11
90.72040789984654
 21
240.3902082083532
 31
0.0
  0
LINE
  5
44C
330
6F
100
AcDbEntity
  8
_2-D_寸法
  6
Continuous
 62
     4
100
AcDbLine
 10
78.72040789984658
 20
245.0693859897365
 30
0.0
 11
78.72040789984658
 21
240.3902082083532
 31
0.0
  0
LINE
  5
44D
330
6F
100
AcDbEntity
  8
_2-D_寸法
  6
Continuous
 62
    18
100
AcDbLine
 10
90.72040789984654
 20
245.0693859897365
 30
0.0
 11
78.72040789984658
 21
245.0693859897365
 31
0.0
  0
TEXT
  5
44E
330
6F
100
AcDbEntity
  8
_2-D_寸法
 62
     3
100
AcDbText
 10
83.17040789984657
 20
245.5693859897365
 30
0.0
 40
2.5
  1
600
 41
0.8
100
AcDbText
  0
CIRCLE
  5
44F
330
6F
100
AcDbEntity
  8
_2-D_寸法
 62
     4
100
AcDbCircle
 10
205.3204078998467
 20
245.0693859897365
 30
0.0
 40
0.4
  0
CIRCLE
  5
450
330
6F
100
AcDbEntity
  8
_2-D_寸法
 62
     4
100
AcDbCircle
 10
217.3204078998467
 20
245.0693859897365
 30
0.0
 40
0.4
  0
LINE
  5
451
330
6F
100
AcDbEntity
  8
_2-D_寸法
  6
Continuous
 62
     4
100
AcDbLine
 10
205.3204078998467
 20
245.0693859897365
 30
0.0
 11
205.3204078998467
 21
240.3902082083532
 31
0.0
  0
LINE
  5
452
330
6F
100
AcDbEntity
  8
_2-D_寸法
  6
Continuous
 62
     4
100
AcDbLine
 10
217.3204078998467
 20
245.0693859897365
 30
0.0
 11
217.3204078998467
 21
240.3902082083532
 31
0.0
  0
LINE
  5
453
330
6F
100
AcDbEntity
  8
_2-D_寸法
  6
Continuous
 62
    18
100
AcDbLine
 10
205.3204078998467
 20
245.0693859897365
 30
0.0
 11
217.3204078998467
 21
245.0693859897365
 31
0.0
  0
TEXT
  5
454
330
6F
100
AcDbEntity
  8
_2-D_寸法
 62
     3
100
AcDbText
 10
209.7704078998467
 20
245.5693859897365
 30
0.0
 40
2.5
  1
600
 41
0.8
100
AcDbText
  0
CIRCLE
  5
455
330
6F
100
AcDbEntity
  8
_2-4_仕上げ
 62
     4
100
AcDbCircle
 10
152.7026903245842
 20
165.2102943643073
 30
0.0
 40
0.4
  0
CIRCLE
  5
456
330
6F
100
AcDbEntity
  8
_2-4_仕上げ
 62
     4
100
AcDbCircle
 10
152.7026903245842
 20
218.2102943643073
 30
0.0
 40
0.4
  0
LINE
  5
457
330
6F
100
AcDbEntity
  8
_2-4_仕上げ
  6
Continuous
 62
    18
100
AcDbLine
 10
152.7026903245842
 20
165.2102943643073
 30
0.0
 11
152.7026903245842
 21
218.2102943643073
 31
0.0
  0
TEXT
  5
458
330
6F
100
AcDbEntity
  8
_2-4_仕上げ
 62
     3
100
AcDbText
 10
152.2026903245841
 20
189.1102943643073
 30
0.0
 40
2.5
  1
2,650
 50
90.0
 41
0.8
100
AcDbText
  0
CIRCLE
  5
459
330
6F
100
AcDbEntity
  8
_2-4_仕上げ
 62
     4
100
AcDbCircle
 10
190.7364358461892
 20
165.2102943643073
 30
0.0
 40
0.4
  0
CIRCLE
  5
45A
330
6F
100
AcDbEntity
  8
_2-4_仕上げ
 62
     4
100
AcDbCircle
 10
190.7364358461892
 20
207.2102943643073
 30
0.0
 40
0.4
  0
LINE
  5
45B
330
6F
100
AcDbEntity
  8
_2-4_仕上げ
  6
Continuous
 62
    18
100
AcDbLine
 10
190.7364358461892
 20
165.2102943643073
 30
0.0
 11
190.7364358461892
 21
207.2102943643073
 31
0.0
  0
TEXT
  5
45C
330
6F
100
AcDbEntity
  8
_2-4_仕上げ
 62
     3
100
AcDbText
 10
190.2364358461892
 20
183.6102943643073
 30
0.0
 40
2.5
  1
2,100
 50
90.0
 41
0.8
100
AcDbText
  0
CIRCLE
  5
45D
330
6F
100
AcDbEntity
  8
_2-3_植栽
 62
     4
100
AcDbCircle
 10
76.67448382488742
 20
165.2102943643073
 30
0.0
 40
0.4
  0
CIRCLE
  5
45E
330
6F
100
AcDbEntity
  8
_2-3_植栽
 62
     4
100
AcDbCircle
 10
76.67448382488742
 20
212.2102943651273
 30
0.0
 40
0.4
  0
LINE
  5
45F
330
6F
100
AcDbEntity
  8
_2-3_植栽
  6
Continuous
 62
    18
100
AcDbLine
 10
76.67448382488742
 20
165.2102943643073
 30
0.0
 11
76.67448382488742
 21
212.2102943651273
 31
0.0
  0
TEXT
  5
460
330
6F
100
AcDbEntity
  8
_2-3_植栽
 62
     3
100
AcDbText
 10
76.17448382488742
 20
186.1102943647172
 30
0.0
 40
2.5
  1
2,350
 50
90.0
 41
0.8
100
AcDbText
  0
LINE
  5
461
330
6F
100
AcDbEntity
  8
_2-D_寸法
  6
Continuous
 62
     4
100
AcDbLine
 10
245.0556715384448
 20
153.2102943643073
 30
0.0
 11
238.4799866208971
 21
153.2102943643073
 31
0.0
  0
INSERT
  5
462
330
6F
100
AcDbEntity
  8
_2-E_文字
100
AcDbBlockReference
  2
-000-え
 10
128.9620199450403
 20
114.7811579640678
 30
0.0
 41
2.0
 42
2.0
 50
270.0
  0
INSERT
  5
463
330
6F
100
AcDbEntity
  8
_2-E_文字
100
AcDbBlockReference
  2
-001-お
 10
128.9620199450403
 20
114.7811579640678
 30
0.0
 41
2.0
 42
2.0
 50
270.0
  0
INSERT
  5
464
330
6F
100
AcDbEntity
  8
_2-E_文字
100
AcDbBlockReference
  2
-002-か
 10
167.1620199450404
 20
114.7811579640678
 30
0.0
 41
2.0
 42
2.0
 50
270.0
  0
INSERT
  5
465
330
6F
100
AcDbEntity
  8
_2-E_文字
100
AcDbBlockReference
  2
-003-き
 10
167.1620199450404
 20
114.7811579640678
 30
0.0
 41
2.0
 42
2.0
 50
270.0
  0
INSERT
  5
466
330
6F
100
AcDbEntity
  8
_2-E_文字
100
AcDbBlockReference
  2
-004-く
 10
167.1620199450404
 20
114.7811579640678
 30
0.0
 41
2.0
 42
2.0
 50
270.0
  0
INSERT
  5
467
330
6F
100
AcDbEntity
  8
_2-E_文字
100
AcDbBlockReference
  2
-005-け
 10
167.1620199450404
 20
114.7811579640678
 30
0.0
 41
2.0
 42
2.0
 50
270.0
  0
LINE
  5
468
330
6F
100
AcDbEntity
  8
_2-E_文字
  6
Continuous
 62
     9
100
AcDbLine
 10
76.48528895044181
 20
115.4304830752162
 30
0.0
 11
66.91707026282745
 21
115.4304830752162
 31
0.0
  0
LINE
  5
469
330
6F
100
AcDbEntity
  8
_2-E_文字
  6
Continuous
 62
     9
100
AcDbLine
 10
71.62040789984665
 20
111.4304830661251
 30
0.0
 11
71.62040789984665
 21
120.3196893009186
 31
0.0
  0
INSERT
  5
46A
330
6F
100
AcDbEntity
  8
_2-E_文字
100
AcDbBlockReference
  2
-006-あｓ
 10
71.70608437383305
 20
112.3885795223169
 30
0.0
 41
2.0
 42
2.0
 50
270.0
  0
LINE
  5
46B
330
6F
100
AcDbEntity
  8
_2-E_文字
  6
Continuous
 62
     9
100
AcDbLine
 10
95.58528895044183
 20
115.4304830843073
 30
0.0
 11
86.01707026282747
 21
115.4304830843073
 31
0.0
  0
LINE
  5
46C
330
6F
100
AcDbEntity
  8
_2-E_文字
  6
Continuous
 62
     9
100
AcDbLine
 10
90.72040789984669
 20
111.4304830752162
 30
0.0
 11
90.72040789984669
 21
120.3196893100097
 31
0.0
  0
LINE
  5
46D
330
6F
100
AcDbEntity
  8
_2-E_文字
  6
Continuous
 62
     9
100
AcDbLine
 10
114.6852889504418
 20
115.4304830933984
 30
0.0
 11
105.1170702628275
 21
115.4304830933984
 31
0.0
  0
LINE
  5
46E
330
6F
100
AcDbEntity
  8
_2-E_文字
  6
Continuous
 62
     9
100
AcDbLine
 10
109.8204078998467
 20
111.4304830843073
 30
0.0
 11
109.8204078998467
 21
120.3196893191008
 31
0.0
  0
INSERT
  5
46F
330
6F
100
AcDbEntity
  8
_2-E_文字
100
AcDbBlockReference
  2
-007-２３２１
 10
90.80608437383309
 20
112.3885795132258
 30
0.0
 41
2.0
 42
2.0
 50
270.0
  0
INSERT
  5
470
330
6F
100
AcDbEntity
  8
_2-E_文字
100
AcDbBlockReference
  2
-008-うｙ
 10
164.5614397644737
 20
111.4304830752162
 30
0.0
 41
2.0
 42
2.0
 50
270.0
  0
ENDSEC
  0
SECTION
  2
OBJECTS
  0
DICTIONARY
  5
C
330
0
100
AcDbDictionary
281
     1
  3
ACAD_COLOR
350
62
  3
ACAD_DETAILVIEWSTYLE
350
69
  3
ACAD_GROUP
350
D
  3
ACAD_LAYOUT
350
61
  3
ACAD_MATERIAL
350
10
  3
ACAD_MLEADERSTYLE
350
65
  3
ACAD_MLINESTYLE
350
5E
  3
ACAD_PLOTSETTINGS
350
60
  3
ACAD_PLOTSTYLENAME
350
E
  3
ACAD_SCALELIST
350
42
  3
ACAD_SECTIONVIEWSTYLE
350
67
  3
ACAD_TABLESTYLE
350
63
  3
ACAD_VISUALSTYLE
350
29
  3
ACDB_RECOMPOSE_DATA
350
47D
  3
AcDbVariableDictionary
350
471
  0
DICTIONARY
  5
62
102
{ACAD_REACTORS
330
C
102
}
330
C
100
AcDbDictionary
281
     1
  0
DICTIONARY
  5
69
102
{ACAD_REACTORS
330
C
102
}
330
C
100
AcDbDictionary
281
     1
  3
Imperial24
350
6A
  0
DICTIONARY
  5
D
102
{ACAD_REACTORS
330
C
102
}
330
C
100
AcDbDictionary
281
     1
  0
DICTIONARY
  5
61
102
{ACAD_REACTORS
330
C
102
}
330
C
100
AcDbDictionary
281
     1
  3
Layout1
350
6E
  3
Model
350
72
  0
DICTIONARY
  5
10
102
{ACAD_REACTORS
330
C
102
}
330
C
100
AcDbDictionary
281
     1
  3
ByBlock
350
19
  3
ByLayer
350
11
  3
Global
350
21
  0
DICTIONARY
  5
65
102
{ACAD_REACTORS
330
C
102
}
330
C
100
AcDbDictionary
281
     1
  3
Standard
350
66
  0
DICTIONARY
  5
5E
102
{ACAD_REACTORS
330
C
102
}
330
C
100
AcDbDictionary
281
     1
  3
Standard
350
5F
  0
DICTIONARY
  5
60
102
{ACAD_REACTORS
330
C
102
}
330
C
100
AcDbDictionary
281
     1
  0
ACDBDICTIONARYWDFLT
  5
E
102
{ACAD_REACTORS
330
C
102
}
330
C
100
AcDbDictionary
281
     1
  3
Normal
350
F
100
AcDbDictionaryWithDefault
340
F
  0
DICTIONARY
  5
42
102
{ACAD_REACTORS
330
C
102
}
330
C
100
AcDbDictionary
281
     1
  3
A0
350
43
  3
A1
350
44
  3
A2
350
45
  3
A3
350
46
  3
A4
350
47
  3
A5
350
48
  3
A6
350
49
  3
A7
350
4A
  3
A8
350
4B
  3
A9
350
4C
  3
B0
350
4D
  3
B1
350
4E
  3
B2
350
4F
  3
B3
350
50
  3
B4
350
51
  3
B5
350
52
  3
B6
350
53
  0
DICTIONARY
  5
67
102
{ACAD_REACTORS
330
C
102
}
330
C
100
AcDbDictionary
281
     1
  3
Imperial24
350
68
  0
DICTIONARY
  5
63
102
{ACAD_REACTORS
330
C
102
}
330
C
100
AcDbDictionary
281
     1
  3
Standard
350
64
  0
DICTIONARY
  5
29
102
{ACAD_REACTORS
330
C
102
}
330
C
100
AcDbDictionary
281
     1
  3
2dWireframe
350
2F
  3
Basic
350
2E
  3
Brighten
350
35
  3
ColorChange
350
39
  3
Conceptual
350
32
  3
Dim
350
34
  3
EdgeColorOff
350
41
  3
Facepattern
350
38
  3
Flat
350
2A
  3
FlatWithEdges
350
2B
  3
Gouraud
350
2C
  3
GouraudWithEdges
350
2D
  3
Hidden
350
31
  3
JitterOff
350
3F
  3
Linepattern
350
37
  3
OverhangOff
350
40
  3
Realistic
350
33
  3
Shaded
350
3E
  3
Shaded with edges
350
3D
  3
Shades of Gray
350
3A
  3
Sketchy
350
3B
  3
Thicken
350
36
  3
Wireframe
350
30
  3
X-Ray
350
3C
  0
XRECORD
  5
47D
102
{ACAD_REACTORS
330
C
102
}
330
C
100
AcDbXrecord
280
     1
 90
        1
330
64
  0
DICTIONARY
  5
471
102
{ACAD_REACTORS
330
C
102
}
330
C
100
AcDbDictionary
281
     1
  3
CANNOSCALE
350
477
  3
CMLEADERSTYLE
350
473
  3
CTABLESTYLE
350
472
  3
CVIEWDETAILSTYLE
350
474
  3
CVIEWSECTIONSTYLE
350
475
  3
LAYEREVAL
350
479
  3
LAYERNOTIFY
350
47A
  3
LIGHTINGUNITS
350
478
  3
MSLTSCALE
350
476
  0
ACDBDETAILVIEWSTYLE
  5
6A
102
{ACAD_REACTORS
330
69
102
}
330
69
100
AcDbModelDocViewStyle
 70
     0
  3
Imperial24
290
     0
300
Imperial24
 90
        0
100
AcDbDetailViewStyle
 70
     0
 71
     0
 90
        3
 71
     1
340
55
 62
   256
 40
0.24
340
0
 62
   256
 40
0.24
300

 40
0.36
280
     3
 71
     2
340
5C
 90
       25
 62
   256
 71
     3
340
55
 62
   256
 40
0.24
 90
        1
 40
0.75
 90
        1
300
%<\AcVar ViewType \f "%tc1">% %<\AcVar ViewDetailId>%\PSCALE %<\AcVar ViewScale \f "%sn">%
 71
     4
340
5C
 90
       25
 62
   256
340
5C
 90
       25
 62
   256
280
     0
  0
LAYOUT
  5
6E
102
{ACAD_REACTORS
330
61
102
}
330
61
100
AcDbPlotSettings
  1

  2

  4

  6

 40
0.0
 41
0.0
 42
0.0
 43
0.0
 44
0.0
 45
0.0
 46
0.0
 47
0.0
 48
0.0
 49
0.0
140
0.0
141
0.0
142
1.0
143
1.0
 70
   688
 72
     0
 73
     0
 74
     5
  7

 75
    16
147
1.0
 76
     0
 77
     2
 78
   300
148
0.0
149
0.0
100
AcDbLayout
  1
Layout1
 70
     1
 71
     1
 10
0.0
 20
0.0
 11
12.0
 21
9.0
 12
0.0
 22
0.0
 32
0.0
 14
0.0
 24
0.0
 34
0.0
 15
0.0
 25
0.0
 35
0.0
146
0.0
 13
0.0
 23
0.0
 33
0.0
 16
1.0
 26
0.0
 36
0.0
 17
0.0
 27
1.0
 37
0.0
 76
     0
330
6B
  0
LAYOUT
  5
72
102
{ACAD_REACTORS
330
61
102
}
330
61
100
AcDbPlotSettings
  1

  2

  4

  6

 40
0.0
 41
0.0
 42
0.0
 43
0.0
 44
0.0
 45
0.0
 46
0.0
 47
0.0
 48
0.0
 49
0.0
140
0.0
141
0.0
142
1.0
143
1.0
 70
  1712
 72
     0
 73
     0
 74
     0
  7

 75
     0
147
1.0
 76
     0
 77
     2
 78
   300
148
0.0
149
0.0
100
AcDbLayout
  1
Model
 70
     1
 71
     0
 10
0.0
 20
0.0
 11
12.0
 21
9.0
 12
0.0
 22
0.0
 32
0.0
 14
0.0
 24
0.0
 34
0.0
 15
0.0
 25
0.0
 35
0.0
146
0.0
 13
0.0
 23
0.0
 33
0.0
 16
1.0
 26
0.0
 36
0.0
 17
0.0
 27
1.0
 37
0.0
 76
     0
330
6F
  0
MATERIAL
  5
19
102
{ACAD_XDICTIONARY
360
1A
102
}
102
{ACAD_REACTORS
330
10
102
}
330
10
100
AcDbMaterial
  1
ByBlock
 72
     0
 43
0.0208333333333333
 43
0.0
 43
0.0
 43
0.0
 43
0.0
 43
0.0208333333333333
 43
0.0
 43
0.0
 43
0.0
 43
0.0
 43
1.0
 43
0.0
 43
0.0
 43
0.0
 43
0.0
 43
1.0
 77
     0
 47
0.0208333333333333
 47
0.0
 47
0.0
 47
0.0
 47
0.0
 47
0.0208333333333333
 47
0.0
 47
0.0
 47
0.0
 47
0.0
 47
1.0
 47
0.0
 47
0.0
 47
0.0
 47
0.0
 47
1.0
171
     0
 49
0.0208333333333333
 49
0.0
 49
0.0
 49
0.0
 49
0.0
 49
0.0208333333333333
 49
0.0
 49
0.0
 49
0.0
 49
0.0
 49
1.0
 49
0.0
 49
0.0
 49
0.0
 49
0.0
 49
1.0
175
     0
142
0.0208333333333333
142
0.0
142
0.0
142
0.0
142
0.0
142
0.0208333333333333
142
0.0
142
0.0
142
0.0
142
0.0
142
1.0
142
0.0
142
0.0
142
0.0
142
0.0
142
1.0
179
     0
144
0.0208333333333333
144
0.0
144
0.0
144
0.0
144
0.0
144
0.0208333333333333
144
0.0
144
0.0
144
0.0
144
0.0
144
1.0
144
0.0
144
0.0
144
0.0
144
0.0
144
1.0
147
0.0208333333333333
147
0.0
147
0.0
147
0.0
147
0.0
147
0.0208333333333333
147
0.0
147
0.0
147
0.0
147
0.0
147
1.0
147
0.0
147
0.0
147
0.0
147
0.0
147
1.0
  0
MATERIAL
  5
11
102
{ACAD_XDICTIONARY
360
12
102
}
102
{ACAD_REACTORS
330
10
102
}
330
10
100
AcDbMaterial
  1
ByLayer
 72
     0
 43
0.0208333333333333
 43
0.0
 43
0.0
 43
0.0
 43
0.0
 43
0.0208333333333333
 43
0.0
 43
0.0
 43
0.0
 43
0.0
 43
1.0
 43
0.0
 43
0.0
 43
0.0
 43
0.0
 43
1.0
 77
     0
 47
0.0208333333333333
 47
0.0
 47
0.0
 47
0.0
 47
0.0
 47
0.0208333333333333
 47
0.0
 47
0.0
 47
0.0
 47
0.0
 47
1.0
 47
0.0
 47
0.0
 47
0.0
 47
0.0
 47
1.0
171
     0
 49
0.0208333333333333
 49
0.0
 49
0.0
 49
0.0
 49
0.0
 49
0.0208333333333333
 49
0.0
 49
0.0
 49
0.0
 49
0.0
 49
1.0
 49
0.0
 49
0.0
 49
0.0
 49
0.0
 49
1.0
175
     0
142
0.0208333333333333
142
0.0
142
0.0
142
0.0
142
0.0
142
0.0208333333333333
142
0.0
142
0.0
142
0.0
142
0.0
142
1.0
142
0.0
142
0.0
142
0.0
142
0.0
142
1.0
179
     0
144
0.0208333333333333
144
0.0
144
0.0
144
0.0
144
0.0
144
0.0208333333333333
144
0.0
144
0.0
144
0.0
144
0.0
144
1.0
144
0.0
144
0.0
144
0.0
144
0.0
144
1.0
147
0.0208333333333333
147
0.0
147
0.0
147
0.0
147
0.0
147
0.0208333333333333
147
0.0
147
0.0
147
0.0
147
0.0
147
1.0
147
0.0
147
0.0
147
0.0
147
0.0
147
1.0
  0
MATERIAL
  5
21
102
{ACAD_XDICTIONARY
360
22
102
}
102
{ACAD_REACTORS
330
10
102
}
330
10
100
AcDbMaterial
  1
Global
 72
     0
 43
0.0208333333333333
 43
0.0
 43
0.0
 43
0.0
 43
0.0
 43
0.0208333333333333
 43
0.0
 43
0.0
 43
0.0
 43
0.0
 43
1.0
 43
0.0
 43
0.0
 43
0.0
 43
0.0
 43
1.0
 77
     0
 47
0.0208333333333333
 47
0.0
 47
0.0
 47
0.0
 47
0.0
 47
0.0208333333333333
 47
0.0
 47
0.0
 47
0.0
 47
0.0
 47
1.0
 47
0.0
 47
0.0
 47
0.0
 47
0.0
 47
1.0
171
     0
 49
0.0208333333333333
 49
0.0
 49
0.0
 49
0.0
 49
0.0
 49
0.0208333333333333
 49
0.0
 49
0.0
 49
0.0
 49
0.0
 49
1.0
 49
0.0
 49
0.0
 49
0.0
 49
0.0
 49
1.0
175
     0
142
0.0208333333333333
142
0.0
142
0.0
142
0.0
142
0.0
142
0.0208333333333333
142
0.0
142
0.0
142
0.0
142
0.0
142
1.0
142
0.0
142
0.0
142
0.0
142
0.0
142
1.0
179
     0
144
0.0208333333333333
144
0.0
144
0.0
144
0.0
144
0.0
144
0.0208333333333333
144
0.0
144
0.0
144
0.0
144
0.0
144
1.0
144
0.0
144
0.0
144
0.0
144
0.0
144
1.0
147
0.0208333333333333
147
0.0
147
0.0
147
0.0
147
0.0
147
0.0208333333333333
147
0.0
147
0.0
147
0.0
147
0.0
147
1.0
147
0.0
147
0.0
147
0.0
147
0.0
147
1.0
  0
MLEADERSTYLE
  5
66
102
{ACAD_REACTORS
330
65
102
}
330
65
100
AcDbMLeaderStyle
179
     2
170
     2
171
     1
172
     0
 90
        2
 40
0.0
 41
0.0
173
     1
 91
-1056964608
340
5A
 92
       -2
290
     1
 42
0.09
291
     1
 43
0.36
  3
Standard
 44
0.18
300

342
55
174
     1
178
     6
175
     1
176
     0
 93
-1056964608
 45
0.18
292
     0
297
     0
 46
0.18
 94
-1056964608
 47
1.0
 49
1.0
140
1.0
293
     1
141
0.0
294
     1
177
     0
142
1.0
295
     0
296
     0
143
0.125
271
     0
272
     9
273
     9
298
     0
  0
MLINESTYLE
  5
5F
102
{ACAD_REACTORS
330
5E
102
}
330
5E
100
AcDbMlineStyle
  2
STANDARD
 70
     0
  3

 62
   256
 51
90.0
 52
90.0
 71
     2
 49
0.5
 62
   256
  6
BYLAYER
 49
-0.5
 62
   256
  6
BYLAYER
  0
ACDBPLACEHOLDER
  5
F
102
{ACAD_REACTORS
330
E
102
}
330
E
  0
SCALE
  5
43
102
{ACAD_REACTORS
330
42
102
}
330
42
100
AcDbScale
 70
     0
300
1:1
140
1.0
141
1.0
290
     1
  0
SCALE
  5
44
102
{ACAD_REACTORS
330
42
102
}
330
42
100
AcDbScale
 70
     0
300
1/128" = 1'-0"
140
0.0078125
141
12.0
290
     0
  0
SCALE
  5
45
102
{ACAD_REACTORS
330
42
102
}
330
42
100
AcDbScale
 70
     0
300
1/64" = 1'-0"
140
0.015625
141
12.0
290
     0
  0
SCALE
  5
46
102
{ACAD_REACTORS
330
42
102
}
330
42
100
AcDbScale
 70
     0
300
1/32" = 1'-0"
140
0.03125
141
12.0
290
     0
  0
SCALE
  5
47
102
{ACAD_REACTORS
330
42
102
}
330
42
100
AcDbScale
 70
     0
300
1/16" = 1'-0"
140
0.0625
141
12.0
290
     0
  0
SCALE
  5
48
102
{ACAD_REACTORS
330
42
102
}
330
42
100
AcDbScale
 70
     0
300
3/32" = 1'-0"
140
0.09375
141
12.0
290
     0
  0
SCALE
  5
49
102
{ACAD_REACTORS
330
42
102
}
330
42
100
AcDbScale
 70
     0
300
1/8" = 1'-0"
140
0.125
141
12.0
290
     0
  0
SCALE
  5
4A
102
{ACAD_REACTORS
330
42
102
}
330
42
100
AcDbScale
 70
     0
300
3/16" = 1'-0"
140
0.1875
141
12.0
290
     0
  0
SCALE
  5
4B
102
{ACAD_REACTORS
330
42
102
}
330
42
100
AcDbScale
 70
     0
300
1/4" = 1'-0"
140
0.25
141
12.0
290
     0
  0
SCALE
  5
4C
102
{ACAD_REACTORS
330
42
102
}
330
42
100
AcDbScale
 70
     0
300
3/8" = 1'-0"
140
0.375
141
12.0
290
     0
  0
SCALE
  5
4D
102
{ACAD_REACTORS
330
42
102
}
330
42
100
AcDbScale
 70
     0
300
1/2" = 1'-0"
140
0.5
141
12.0
290
     0
  0
SCALE
  5
4E
102
{ACAD_REACTORS
330
42
102
}
330
42
100
AcDbScale
 70
     0
300
3/4" = 1'-0"
140
0.75
141
12.0
290
     0
  0
SCALE
  5
4F
102
{ACAD_REACTORS
330
42
102
}
330
42
100
AcDbScale
 70
     0
300
1" = 1'-0"
140
1.0
141
12.0
290
     0
  0
SCALE
  5
50
102
{ACAD_REACTORS
330
42
102
}
330
42
100
AcDbScale
 70
     0
300
1-1/2" = 1'-0"
140
1.5
141
12.0
290
     0
  0
SCALE
  5
51
102
{ACAD_REACTORS
330
42
102
}
330
42
100
AcDbScale
 70
     0
300
3" = 1'-0"
140
3.0
141
12.0
290
     0
  0
SCALE
  5
52
102
{ACAD_REACTORS
330
42
102
}
330
42
100
AcDbScale
 70
     0
300
6" = 1'-0"
140
6.0
141
12.0
290
     0
  0
SCALE
  5
53
102
{ACAD_REACTORS
330
42
102
}
330
42
100
AcDbScale
 70
     0
300
1'-0" = 1'-0"
140
12.0
141
12.0
290
     0
  0
ACDBSECTIONVIEWSTYLE
  5
68
102
{ACAD_REACTORS
330
67
102
}
330
67
100
AcDbModelDocViewStyle
 70
     0
  3
Imperial24
290
     0
300
Imperial24
 90
        0
100
AcDbSectionViewStyle
 70
     0
 71
     0
 90
       78
 71
     1
340
55
 62
   256
 40
0.24
340
0
340
0
 62
   256
 40
0.24
300
I, O, Q, S, X, Z
 40
0.48
 90
        3
 40
0.18
 90
        1
 71
     2
340
5C
 90
       25
 62
   256
340
5C
 90
       50
 62
   256
 40
0.24
 40
0.0
 40
0.24
 71
     3
340
55
 62
   256
 40
0.24
 90
        1
 40
0.75
 90
        1
300
%<\AcVar ViewType \f "%tc1">% %<\AcVar ViewSectionStartId>%-%<\AcVar ViewSectionEndId>%\PSCALE %<\AcVar ViewScale \f "%sn">%
 71
     4
 62
   256
 62
   257
300
ANSI31
 40
1.0
 90
        0
290
     0
290
     0
 90
        6
 40
0.0
 40
1.570796326794896
 40
0.2617993877991494
 40
1.308996938995747
 40
-0.2617993877991494
 40
1.832595714594046
  0
TABLESTYLE
  5
64
102
{ACAD_XDICTIONARY
360
47B
102
}
102
{ACAD_REACTORS
330
63
102
}
330
63
100
AcDbTableStyle
280
     0
  3
Standard
 70
     0
 71
     0
 40
0.06
 41
0.06
280
     0
281
     0
  7
STANDARD
140
0.18
170
     2
 62
     0
 63
     7
283
     0
 90
      512
 91
        0
  1

274
    -2
284
     1
 64
     0
275
    -2
285
     1
 65
     0
276
    -2
286
     1
 66
     0
277
    -2
287
     1
 67
     0
278
    -2
288
     1
 68
     0
279
    -2
289
     1
 69
     0
  7
STANDARD
140
0.25
170
     5
 62
     0
 63
     7
283
     0
 90
      512
 91
        0
  1

274
    -2
284
     1
 64
     0
275
    -2
285
     1
 65
     0
276
    -2
286
     1
 66
     0
277
    -2
287
     1
 67
     0
278
    -2
288
     1
 68
     0
279
    -2
289
     1
 69
     0
  7
STANDARD
140
0.18
170
     5
 62
     0
 63
     7
283
     0
 90
      512
 91
        0
  1

274
    -2
284
     1
 64
     0
275
    -2
285
     1
 65
     0
276
    -2
286
     1
 66
     0
277
    -2
287
     1
 67
     0
278
    -2
288
     1
 68
     0
279
    -2
289
     1
 69
     0
  0
VISUALSTYLE
  5
2F
102
{ACAD_REACTORS
330
29
102
}
330
29
100
AcDbVisualStyle
  2
2dWireframe
 70
     4
177
     3
291
     0
 70
    58
 90
        0
176
     1
 90
        2
176
     1
 90
        0
176
     1
 90
        0
176
     1
 40
0.6
176
     1
 40
30.0
176
     1
 62
     7
420
 16777215
176
     1
 90
        1
176
     1
 90
        4
176
     1
 62
     7
176
     1
 62
   257
176
     1
 90
        1
176
     1
 90
        1
176
     1
 40
1.0
176
     1
 90
        0
176
     1
 62
   257
176
     1
 40
1.0
176
     1
 90
        1
176
     1
 90
        6
176
     1
 90
        2
176
     1
 62
     7
176
     1
 90
        5
176
     1
 90
        0
176
     1
 90
        0
176
     1
290
     0
176
     1
 90
        1
176
     1
 40
0.0
176
     1
 90
        0
176
     1
290
     1
176
     1
290
     1
176
     1
290
     0
176
     1
290
     0
176
     1
290
     0
176
     1
290
     0
176
     1
290
     0
176
     1
290
     0
176
     1
290
     0
176
     1
 90
       50
176
     1
 40
0.0
176
     1
 40
1.0
176
     1
 90
        0
176
     1
 62
    18
420
        0
176
     1
 90
       50
176
     1
 90
        3
176
     1
 62
     5
420
      255
176
     1
290
     0
176
     1
 90
       50
176
     1
 90
       50
176
     1
 90
       50
176
     1
290
     0
176
     1
 90
       50
176
     1
 62
   256
176
     0
 40
1.0
176
     0
 90
        2
176
     1
  1
strokes_ogs.tif
176
     1
290
     0
176
     1
 40
1.0
176
     1
 40
1.0
176
     1
  0
VISUALSTYLE
  5
2E
102
{ACAD_REACTORS
330
29
102
}
330
29
100
AcDbVisualStyle
  2
Basic
 70
     7
177
     3
291
     1
 70
    58
 90
        1
176
     1
 90
        0
176
     1
 90
        1
176
     1
 90
        0
176
     1
 40
0.6
176
     1
 40
30.0
176
     1
 62
     7
420
 16777215
176
     1
 90
        0
176
     1
 90
        4
176
     1
 62
     7
176
     1
 62
   257
176
     1
 90
        1
176
     1
 90
        1
176
     1
 40
1.0
176
     1
 90
        8
176
     1
 62
     7
176
     1
 40
1.0
176
     1
 90
        1
176
     1
 90
        6
176
     1
 90
        2
176
     1
 62
     7
176
     1
 90
        5
176
     1
 90
        0
176
     1
 90
        0
176
     1
290
     0
176
     1
 90
        1
176
     1
 40
0.0
176
     1
 90
        0
176
     1
290
     0
176
     1
290
     1
176
     1
290
     1
176
     1
290
     0
176
     1
290
     0
176
     1
290
     0
176
     1
290
     0
176
     1
290
     0
176
     1
290
     0
176
     1
 90
       50
176
     1
 40
0.0
176
     1
 40
1.0
176
     1
 90
        0
176
     1
 62
    18
420
        0
176
     1
 90
       50
176
     1
 90
        3
176
     1
 62
     5
420
      255
176
     1
290
     0
176
     1
 90
       50
176
     1
 90
       50
176
     1
 90
       50
176
     1
290
     0
176
     1
 90
       50
176
     1
 62
   256
176
     0
 40
1.0
176
     0
 90
        2
176
     1
  1
strokes_ogs.tif
176
     1
290
     0
176
     1
 40
1.0
176
     1
 40
1.0
176
     1
  0
VISUALSTYLE
  5
35
102
{ACAD_REACTORS
330
29
102
}
330
29
100
AcDbVisualStyle
  2
Brighten
 70
    12
177
     3
291
     1
 70
    58
 90
        2
176
     1
 90
        2
176
     1
 90
        0
176
     1
 90
        0
176
     1
 40
0.6
176
     1
 40
30.0
176
     1
 62
     7
420
 16777215
176
     1
 90
        1
176
     1
 90
        4
176
     1
 62
     7
176
     1
 62
   257
176
     1
 90
        1
176
     1
 90
        1
176
     1
 40
1.0
176
     1
 90
        8
176
     1
 62
     7
176
     1
 40
1.0
176
     1
 90
        1
176
     1
 90
        6
176
     1
 90
        2
176
     1
 62
     7
176
     1
 90
        5
176
     1
 90
        0
176
     1
 90
        0
176
     1
290
     0
176
     1
 90
        1
176
     1
 40
50.0
176
     1
 90
        0
176
     1
290
     0
176
     1
290
     1
176
     1
290
     1
176
     1
290
     0
176
     1
290
     0
176
     1
290
     0
176
     1
290
     0
176
     1
290
     0
176
     1
290
     0
176
     1
 90
       50
176
     1
 40
0.0
176
     1
 40
1.0
176
     1
 90
        0
176
     1
 62
    18
420
        0
176
     1
 90
       50
176
     1
 90
        3
176
     1
 62
     5
420
      255
176
     1
290
     0
176
     1
 90
       50
176
     1
 90
       50
176
     1
 90
       50
176
     1
290
     0
176
     1
 90
       50
176
     1
 62
   256
176
     0
 40
1.0
176
     0
 90
        2
176
     1
  1
strokes_ogs.tif
176
     1
290
     0
176
     1
 40
1.0
176
     1
 40
1.0
176
     1
  0
VISUALSTYLE
  5
39
102
{ACAD_REACTORS
330
29
102
}
330
29
100
AcDbVisualStyle
  2
ColorChange
 70
    16
177
     3
291
     1
 70
    58
 90
        2
176
     1
 90
        2
176
     1
 90
        3
176
     1
 90
        0
176
     1
 40
0.6
176
     1
 40
30.0
176
     1
 62
     8
420
  8421504
176
     1
 90
        1
176
     1
 90
        4
176
     1
 62
     7
176
     1
 62
   257
176
     1
 90
        1
176
     1
 90
        1
176
     1
 40
1.0
176
     1
 90
        8
176
     1
 62
     8
420
  8421504
176
     1
 40
1.0
176
     1
 90
        1
176
     1
 90
        6
176
     1
 90
        2
176
     1
 62
     7
176
     1
 90
        5
176
     1
 90
        0
176
     1
 90
        0
176
     1
290
     0
176
     1
 90
        1
176
     1
 40
0.0
176
     1
 90
        0
176
     1
290
     0
176
     1
290
     1
176
     1
290
     1
176
     1
290
     0
176
     1
290
     0
176
     1
290
     0
176
     1
290
     0
176
     1
290
     0
176
     1
290
     0
176
     1
 90
       50
176
     1
 40
0.0
176
     1
 40
1.0
176
     1
 90
        0
176
     1
 62
    18
420
        0
176
     1
 90
       50
176
     1
 90
        3
176
     1
 62
     5
420
      255
176
     1
290
     0
176
     1
 90
       50
176
     1
 90
       50
176
     1
 90
       50
176
     1
290
     0
176
     1
 90
       50
176
     1
 62
   256
176
     0
 40
1.0
176
     0
 90
        2
176
     1
  1
strokes_ogs.tif
176
     1
290
     0
176
     1
 40
1.0
176
     1
 40
1.0
176
     1
  0
VISUALSTYLE
  5
32
102
{ACAD_REACTORS
330
29
102
}
330
29
100
AcDbVisualStyle
  2
Conceptual
 70
     9
177
     3
291
     0
 70
    58
 90
        3
176
     1
 90
        2
176
     1
 90
        0
176
     1
 90
        0
176
     1
 40
0.6
176
     1
 40
30.0
176
     1
 62
     7
420
 16777215
176
     1
 90
        2
176
     1
 90
        2
176
     1
 62
     7
176
     1
 62
   257
176
     1
 90
        1
176
     1
 90
        1
176
     1
 40
179.0
176
     1
 90
        8
176
     1
 62
     7
176
     1
 40
1.0
176
     1
 90
        1
176
     1
 90
        6
176
     1
 90
        2
176
     1
 62
     7
176
     1
 90
        3
176
     1
 90
        0
176
     1
 90
        0
176
     1
290
     0
176
     1
 90
        1
176
     1
 40
0.0
176
     1
 90
        0
176
     1
290
     0
176
     1
290
     1
176
     1
290
     1
176
     1
290
     0
176
     1
290
     0
176
     1
290
     0
176
     1
290
     0
176
     1
290
     0
176
     1
290
     0
176
     1
 90
       50
176
     1
 40
0.0
176
     1
 40
1.0
176
     1
 90
        0
176
     1
 62
    18
420
        0
176
     1
 90
       50
176
     1
 90
        3
176
     1
 62
     5
420
      255
176
     1
290
     0
176
     1
 90
       50
176
     1
 90
       50
176
     1
 90
       50
176
     1
290
     0
176
     1
 90
       50
176
     1
 62
   256
176
     0
 40
1.0
176
     0
 90
        2
176
     1
  1
strokes_ogs.tif
176
     1
290
     0
176
     1
 40
1.0
176
     1
 40
1.0
176
     1
  0
VISUALSTYLE
  5
34
102
{ACAD_REACTORS
330
29
102
}
330
29
100
AcDbVisualStyle
  2
Dim
 70
    11
177
     3
291
     1
 70
    58
 90
        2
176
     1
 90
        2
176
     1
 90
        0
176
     1
 90
        0
176
     1
 40
0.6
176
     1
 40
30.0
176
     1
 62
     7
420
 16777215
176
     1
 90
        1
176
     1
 90
        4
176
     1
 62
     7
176
     1
 62
   257
176
     1
 90
        1
176
     1
 90
        1
176
     1
 40
1.0
176
     1
 90
        8
176
     1
 62
     7
176
     1
 40
1.0
176
     1
 90
        1
176
     1
 90
        6
176
     1
 90
        2
176
     1
 62
     7
176
     1
 90
        5
176
     1
 90
        0
176
     1
 90
        0
176
     1
290
     0
176
     1
 90
        1
176
     1
 40
-50.0
176
     1
 90
        0
176
     1
290
     0
176
     1
290
     1
176
     1
290
     1
176
     1
290
     0
176
     1
290
     0
176
     1
290
     0
176
     1
290
     0
176
     1
290
     0
176
     1
290
     0
176
     1
 90
       50
176
     1
 40
0.0
176
     1
 40
1.0
176
     1
 90
        0
176
     1
 62
    18
420
        0
176
     1
 90
       50
176
     1
 90
        3
176
     1
 62
     5
420
      255
176
     1
290
     0
176
     1
 90
       50
176
     1
 90
       50
176
     1
 90
       50
176
     1
290
     0
176
     1
 90
       50
176
     1
 62
   256
176
     0
 40
1.0
176
     0
 90
        2
176
     1
  1
strokes_ogs.tif
176
     1
290
     0
176
     1
 40
1.0
176
     1
 40
1.0
176
     1
  0
VISUALSTYLE
  5
41
102
{ACAD_REACTORS
330
29
102
}
330
29
100
AcDbVisualStyle
  2
EdgeColorOff
 70
    22
177
     3
291
     1
 70
    58
 90
        2
176
     0
 90
        2
176
     0
 90
        0
176
     0
 90
        0
176
     0
 40
0.6
176
     0
 40
30.0
176
     0
 62
     7
420
 16777215
176
     0
 90
        1
176
     0
 90
        4
176
     0
 62
     7
176
     0
 62
   257
176
     0
 90
        1
176
     0
 90
        1
176
     0
 40
1.0
176
     0
 90
        8
176
     2
 62
     7
176
     0
 40
1.0
176
     0
 90
        1
176
     0
 90
        6
176
     0
 90
        2
176
     0
 62
     7
176
     0
 90
        5
176
     0
 90
        0
176
     0
 90
        0
176
     0
290
     0
176
     0
 90
        1
176
     0
 40
0.0
176
     0
 90
        0
176
     0
290
     0
176
     1
290
     1
176
     1
290
     1
176
     1
290
     0
176
     1
290
     0
176
     1
290
     0
176
     1
290
     0
176
     1
290
     0
176
     1
290
     0
176
     1
 90
       50
176
     0
 40
0.0
176
     0
 40
1.0
176
     0
 90
        0
176
     0
 62
    18
420
        0
176
     0
 90
       50
176
     0
 90
        3
176
     0
 62
     5
420
      255
176
     0
290
     0
176
     1
 90
       50
176
     0
 90
       50
176
     0
 90
       50
176
     0
290
     0
176
     1
 90
       50
176
     0
 62
   256
176
     0
 40
1.0
176
     0
 90
        2
176
     0
  1
strokes_ogs.tif
176
     0
290
     0
176
     1
 40
1.0
176
     0
 40
1.0
176
     0
  0
VISUALSTYLE
  5
38
102
{ACAD_REACTORS
330
29
102
}
330
29
100
AcDbVisualStyle
  2
Facepattern
 70
    15
177
     3
291
     1
 70
    58
 90
        2
176
     1
 90
        2
176
     1
 90
        0
176
     1
 90
        0
176
     1
 40
0.6
176
     1
 40
30.0
176
     1
 62
     7
420
 16777215
176
     1
 90
        1
176
     1
 90
        4
176
     1
 62
     7
176
     1
 62
   257
176
     1
 90
        1
176
     1
 90
        1
176
     1
 40
1.0
176
     1
 90
        8
176
     1
 62
     7
176
     1
 40
1.0
176
     1
 90
        1
176
     1
 90
        6
176
     1
 90
        2
176
     1
 62
     7
176
     1
 90
        5
176
     1
 90
        0
176
     1
 90
        0
176
     1
290
     0
176
     1
 90
        1
176
     1
 40
0.0
176
     1
 90
        0
176
     1
290
     0
176
     1
290
     1
176
     1
290
     1
176
     1
290
     0
176
     1
290
     0
176
     1
290
     0
176
     1
290
     0
176
     1
290
     0
176
     1
290
     0
176
     1
 90
       50
176
     1
 40
0.0
176
     1
 40
1.0
176
     1
 90
        0
176
     1
 62
    18
420
        0
176
     1
 90
       50
176
     1
 90
        3
176
     1
 62
     5
420
      255
176
     1
290
     0
176
     1
 90
       50
176
     1
 90
       50
176
     1
 90
       50
176
     1
290
     0
176
     1
 90
       50
176
     1
 62
   256
176
     0
 40
1.0
176
     0
 90
        2
176
     1
  1
strokes_ogs.tif
176
     1
290
     0
176
     1
 40
1.0
176
     1
 40
1.0
176
     1
  0
VISUALSTYLE
  5
2A
102
{ACAD_REACTORS
330
29
102
}
330
29
100
AcDbVisualStyle
  2
Flat
 70
     0
177
     3
291
     1
 70
    58
 90
        2
176
     1
 90
        1
176
     1
 90
        1
176
     1
 90
        2
176
     1
 40
0.6
176
     1
 40
30.0
176
     1
 62
     7
420
 16777215
176
     1
 90
        0
176
     1
 90
        0
176
     1
 62
     7
176
     1
 62
   257
176
     1
 90
        1
176
     1
 90
        1
176
     1
 40
1.0
176
     1
 90
        8
176
     1
 62
     7
176
     1
 40
1.0
176
     1
 90
        1
176
     1
 90
        6
176
     1
 90
        2
176
     1
 62
     7
176
     1
 90
        5
176
     1
 90
        0
176
     1
 90
        0
176
     1
290
     0
176
     1
 90
       13
176
     1
 40
0.0
176
     1
 90
        0
176
     1
290
     0
176
     1
290
     1
176
     1
290
     1
176
     1
290
     0
176
     1
290
     0
176
     1
290
     0
176
     1
290
     0
176
     1
290
     0
176
     1
290
     0
176
     1
 90
       50
176
     1
 40
0.0
176
     1
 40
1.0
176
     1
 90
        0
176
     1
 62
    18
420
        0
176
     1
 90
       50
176
     1
 90
        3
176
     1
 62
     5
420
      255
176
     1
290
     0
176
     1
 90
       50
176
     1
 90
       50
176
     1
 90
       50
176
     1
290
     0
176
     1
 90
       50
176
     1
 62
   256
176
     0
 40
1.0
176
     0
 90
        2
176
     1
  1
strokes_ogs.tif
176
     1
290
     0
176
     1
 40
1.0
176
     1
 40
1.0
176
     1
  0
VISUALSTYLE
  5
2B
102
{ACAD_REACTORS
330
29
102
}
330
29
100
AcDbVisualStyle
  2
FlatWithEdges
 70
     1
177
     3
291
     1
 70
    58
 90
        2
176
     1
 90
        1
176
     1
 90
        1
176
     1
 90
        2
176
     1
 40
0.6
176
     1
 40
30.0
176
     1
 62
     7
420
 16777215
176
     1
 90
        1
176
     1
 90
        0
176
     1
 62
     7
176
     1
 62
   257
176
     1
 90
        1
176
     1
 90
        1
176
     1
 40
1.0
176
     1
 90
        0
176
     1
 62
   257
176
     1
 40
1.0
176
     1
 90
        1
176
     1
 90
        6
176
     1
 90
        2
176
     1
 62
     7
176
     1
 90
        5
176
     1
 90
        0
176
     1
 90
        0
176
     1
290
     0
176
     1
 90
       13
176
     1
 40
0.0
176
     1
 90
        0
176
     1
290
     0
176
     1
290
     1
176
     1
290
     1
176
     1
290
     0
176
     1
290
     0
176
     1
290
     0
176
     1
290
     0
176
     1
290
     0
176
     1
290
     0
176
     1
 90
       50
176
     1
 40
0.0
176
     1
 40
1.0
176
     1
 90
        0
176
     1
 62
    18
420
        0
176
     1
 90
       50
176
     1
 90
        3
176
     1
 62
     5
420
      255
176
     1
290
     0
176
     1
 90
       50
176
     1
 90
       50
176
     1
 90
       50
176
     1
290
     0
176
     1
 90
       50
176
     1
 62
   256
176
     0
 40
1.0
176
     0
 90
        2
176
     1
  1
strokes_ogs.tif
176
     1
290
     0
176
     1
 40
1.0
176
     1
 40
1.0
176
     1
  0
VISUALSTYLE
  5
2C
102
{ACAD_REACTORS
330
29
102
}
330
29
100
AcDbVisualStyle
  2
Gouraud
 70
     2
177
     3
291
     1
 70
    58
 90
        2
176
     1
 90
        2
176
     1
 90
        1
176
     1
 90
        2
176
     1
 40
0.6
176
     1
 40
30.0
176
     1
 62
     7
420
 16777215
176
     1
 90
        0
176
     1
 90
        0
176
     1
 62
     7
176
     1
 62
   257
176
     1
 90
        1
176
     1
 90
        1
176
     1
 40
1.0
176
     1
 90
        0
176
     1
 62
     7
176
     1
 40
1.0
176
     1
 90
        1
176
     1
 90
        6
176
     1
 90
        2
176
     1
 62
     7
176
     1
 90
        5
176
     1
 90
        0
176
     1
 90
        0
176
     1
290
     0
176
     1
 90
       13
176
     1
 40
0.0
176
     1
 90
        0
176
     1
290
     0
176
     1
290
     1
176
     1
290
     1
176
     1
290
     0
176
     1
290
     0
176
     1
290
     0
176
     1
290
     0
176
     1
290
     0
176
     1
290
     0
176
     1
 90
       50
176
     1
 40
0.0
176
     1
 40
1.0
176
     1
 90
        0
176
     1
 62
    18
420
        0
176
     1
 90
       50
176
     1
 90
        3
176
     1
 62
     5
420
      255
176
     1
290
     0
176
     1
 90
       50
176
     1
 90
       50
176
     1
 90
       50
176
     1
290
     0
176
     1
 90
       50
176
     1
 62
   256
176
     0
 40
1.0
176
     0
 90
        2
176
     1
  1
strokes_ogs.tif
176
     1
290
     0
176
     1
 40
1.0
176
     1
 40
1.0
176
     1
  0
VISUALSTYLE
  5
2D
102
{ACAD_REACTORS
330
29
102
}
330
29
100
AcDbVisualStyle
  2
GouraudWithEdges
 70
     3
177
     3
291
     1
 70
    58
 90
        2
176
     1
 90
        2
176
     1
 90
        1
176
     1
 90
        2
176
     1
 40
0.6
176
     1
 40
30.0
176
     1
 62
     7
420
 16777215
176
     1
 90
        1
176
     1
 90
        0
176
     1
 62
     7
176
     1
 62
   257
176
     1
 90
        1
176
     1
 90
        1
176
     1
 40
1.0
176
     1
 90
        0
176
     1
 62
   257
176
     1
 40
1.0
176
     1
 90
        1
176
     1
 90
        6
176
     1
 90
        2
176
     1
 62
     7
176
     1
 90
        5
176
     1
 90
        0
176
     1
 90
        0
176
     1
290
     0
176
     1
 90
       13
176
     1
 40
0.0
176
     1
 90
        0
176
     1
290
     0
176
     1
290
     1
176
     1
290
     1
176
     1
290
     0
176
     1
290
     0
176
     1
290
     0
176
     1
290
     0
176
     1
290
     0
176
     1
290
     0
176
     1
 90
       50
176
     1
 40
0.0
176
     1
 40
1.0
176
     1
 90
        0
176
     1
 62
    18
420
        0
176
     1
 90
       50
176
     1
 90
        3
176
     1
 62
     5
420
      255
176
     1
290
     0
176
     1
 90
       50
176
     1
 90
       50
176
     1
 90
       50
176
     1
290
     0
176
     1
 90
       50
176
     1
 62
   256
176
     0
 40
1.0
176
     0
 90
        2
176
     1
  1
strokes_ogs.tif
176
     1
290
     0
176
     1
 40
1.0
176
     1
 40
1.0
176
     1
  0
VISUALSTYLE
  5
31
102
{ACAD_REACTORS
330
29
102
}
330
29
100
AcDbVisualStyle
  2
Hidden
 70
     6
177
     3
291
     0
 70
    58
 90
        1
176
     1
 90
        2
176
     1
 90
        2
176
     1
 90
        0
176
     1
 40
0.6
176
     1
 40
30.0
176
     1
 62
     7
420
 16777215
176
     1
 90
        2
176
     1
 90
        2
176
     1
 62
     7
176
     1
 62
   257
176
     1
 90
        2
176
     1
 90
        1
176
     1
 40
40.0
176
     1
 90
        0
176
     1
 62
   257
176
     1
 40
1.0
176
     1
 90
        1
176
     1
 90
        6
176
     1
 90
        2
176
     1
 62
     7
176
     1
 90
        3
176
     1
 90
        0
176
     1
 90
        0
176
     1
290
     0
176
     1
 90
        1
176
     1
 40
0.0
176
     1
 90
        0
176
     1
290
     0
176
     1
290
     1
176
     1
290
     1
176
     1
290
     0
176
     1
290
     0
176
     1
290
     0
176
     1
290
     0
176
     1
290
     0
176
     1
290
     0
176
     1
 90
       50
176
     1
 40
0.0
176
     1
 40
1.0
176
     1
 90
        0
176
     1
 62
    18
420
        0
176
     1
 90
       50
176
     1
 90
        3
176
     1
 62
     5
420
      255
176
     1
290
     0
176
     1
 90
       50
176
     1
 90
       50
176
     1
 90
       50
176
     1
290
     0
176
     1
 90
       50
176
     1
 62
   256
176
     0
 40
1.0
176
     0
 90
        2
176
     1
  1
strokes_ogs.tif
176
     1
290
     0
176
     1
 40
1.0
176
     1
 40
1.0
176
     1
  0
VISUALSTYLE
  5
3F
102
{ACAD_REACTORS
330
29
102
}
330
29
100
AcDbVisualStyle
  2
JitterOff
 70
    20
177
     3
291
     1
 70
    58
 90
        2
176
     0
 90
        2
176
     0
 90
        0
176
     0
 90
        0
176
     0
 40
0.6
176
     0
 40
30.0
176
     0
 62
     7
420
 16777215
176
     0
 90
        1
176
     0
 90
        4
176
     0
 62
     7
176
     0
 62
   257
176
     0
 90
        1
176
     0
 90
        1
176
     0
 40
1.0
176
     0
 90
       10
176
     2
 62
     7
176
     0
 40
1.0
176
     0
 90
        1
176
     0
 90
        6
176
     0
 90
        2
176
     0
 62
     7
176
     0
 90
        5
176
     0
 90
        0
176
     0
 90
        0
176
     0
290
     0
176
     0
 90
        1
176
     0
 40
0.0
176
     0
 90
        0
176
     0
290
     0
176
     1
290
     1
176
     1
290
     1
176
     1
290
     0
176
     1
290
     0
176
     1
290
     0
176
     1
290
     0
176
     1
290
     0
176
     1
290
     0
176
     1
 90
       50
176
     0
 40
0.0
176
     0
 40
1.0
176
     0
 90
        0
176
     0
 62
    18
420
        0
176
     0
 90
       50
176
     0
 90
        3
176
     0
 62
     5
420
      255
176
     0
290
     0
176
     1
 90
       50
176
     0
 90
       50
176
     0
 90
       50
176
     0
290
     0
176
     1
 90
       50
176
     0
 62
   256
176
     0
 40
1.0
176
     0
 90
        2
176
     0
  1
strokes_ogs.tif
176
     0
290
     0
176
     1
 40
1.0
176
     0
 40
1.0
176
     0
  0
VISUALSTYLE
  5
37
102
{ACAD_REACTORS
330
29
102
}
330
29
100
AcDbVisualStyle
  2
Linepattern
 70
    14
177
     3
291
     1
 70
    58
 90
        2
176
     1
 90
        2
176
     1
 90
        0
176
     1
 90
        0
176
     1
 40
0.6
176
     1
 40
30.0
176
     1
 62
     7
420
 16777215
176
     1
 90
        1
176
     1
 90
        4
176
     1
 62
     7
176
     1
 62
   257
176
     1
 90
        7
176
     1
 90
        7
176
     1
 40
1.0
176
     1
 90
        8
176
     1
 62
     7
176
     1
 40
1.0
176
     1
 90
        1
176
     1
 90
        6
176
     1
 90
        2
176
     1
 62
     7
176
     1
 90
        5
176
     1
 90
        0
176
     1
 90
        0
176
     1
290
     0
176
     1
 90
        1
176
     1
 40
0.0
176
     1
 90
        0
176
     1
290
     0
176
     1
290
     1
176
     1
290
     1
176
     1
290
     0
176
     1
290
     0
176
     1
290
     0
176
     1
290
     0
176
     1
290
     0
176
     1
290
     0
176
     1
 90
       50
176
     1
 40
0.0
176
     1
 40
1.0
176
     1
 90
        0
176
     1
 62
    18
420
        0
176
     1
 90
       50
176
     1
 90
        3
176
     1
 62
     5
420
      255
176
     1
290
     0
176
     1
 90
       50
176
     1
 90
       50
176
     1
 90
       50
176
     1
290
     0
176
     1
 90
       50
176
     1
 62
   256
176
     0
 40
1.0
176
     0
 90
        2
176
     1
  1
strokes_ogs.tif
176
     1
290
     0
176
     1
 40
1.0
176
     1
 40
1.0
176
     1
  0
VISUALSTYLE
  5
40
102
{ACAD_REACTORS
330
29
102
}
330
29
100
AcDbVisualStyle
  2
OverhangOff
 70
    21
177
     3
291
     1
 70
    58
 90
        2
176
     0
 90
        2
176
     0
 90
        0
176
     0
 90
        0
176
     0
 40
0.6
176
     0
 40
30.0
176
     0
 62
     7
420
 16777215
176
     0
 90
        1
176
     0
 90
        4
176
     0
 62
     7
176
     0
 62
   257
176
     0
 90
        1
176
     0
 90
        1
176
     0
 40
1.0
176
     0
 90
        9
176
     2
 62
     7
176
     0
 40
1.0
176
     0
 90
        1
176
     0
 90
        6
176
     0
 90
        2
176
     0
 62
     7
176
     0
 90
        5
176
     0
 90
        0
176
     0
 90
        0
176
     0
290
     0
176
     0
 90
        1
176
     0
 40
0.0
176
     0
 90
        0
176
     0
290
     0
176
     1
290
     1
176
     1
290
     1
176
     1
290
     0
176
     1
290
     0
176
     1
290
     0
176
     1
290
     0
176
     1
290
     0
176
     1
290
     0
176
     1
 90
       50
176
     0
 40
0.0
176
     0
 40
1.0
176
     0
 90
        0
176
     0
 62
    18
420
        0
176
     0
 90
       50
176
     0
 90
        3
176
     0
 62
     5
420
      255
176
     0
290
     0
176
     1
 90
       50
176
     0
 90
       50
176
     0
 90
       50
176
     0
290
     0
176
     1
 90
       50
176
     0
 62
   256
176
     0
 40
1.0
176
     0
 90
        2
176
     0
  1
strokes_ogs.tif
176
     0
290
     0
176
     1
 40
1.0
176
     0
 40
1.0
176
     0
  0
VISUALSTYLE
  5
33
102
{ACAD_REACTORS
330
29
102
}
330
29
100
AcDbVisualStyle
  2
Realistic
 70
     8
177
     3
291
     0
 70
    58
 90
        2
176
     1
 90
        3
176
     1
 90
        0
176
     1
 90
        2
176
     1
 40
0.6
176
     1
 40
30.0
176
     1
 62
     7
420
 16777215
176
     1
 90
        0
176
     1
 90
        0
176
     1
 62
     7
176
     1
 62
   257
176
     1
 90
        1
176
     1
 90
        1
176
     1
 40
1.0
176
     1
 90
        8
176
     1
 62
   257
176
     1
 40
1.0
176
     1
 90
        1
176
     1
 90
        6
176
     1
 90
        2
176
     1
 62
     7
176
     1
 90
        3
176
     1
 90
        0
176
     1
 90
        0
176
     1
290
     0
176
     1
 90
       13
176
     1
 40
0.0
176
     1
 90
        0
176
     1
290
     0
176
     1
290
     1
176
     1
290
     1
176
     1
290
     0
176
     1
290
     0
176
     1
290
     0
176
     1
290
     0
176
     1
290
     0
176
     1
290
     0
176
     1
 90
       50
176
     1
 40
0.0
176
     1
 40
1.0
176
     1
 90
        0
176
     1
 62
    18
420
        0
176
     1
 90
       50
176
     1
 90
        3
176
     1
 62
     5
420
      255
176
     1
290
     0
176
     1
 90
       50
176
     1
 90
       50
176
     1
 90
       50
176
     1
290
     0
176
     1
 90
       50
176
     1
 62
   256
176
     0
 40
1.0
176
     0
 90
        2
176
     1
  1
strokes_ogs.tif
176
     1
290
     0
176
     1
 40
1.0
176
     1
 40
1.0
176
     1
  0
VISUALSTYLE
  5
3E
102
{ACAD_REACTORS
330
29
102
}
330
29
100
AcDbVisualStyle
  2
Shaded
 70
    27
177
     3
291
     0
 70
    58
 90
        2
176
     1
 90
        2
176
     1
 90
        1
176
     1
 90
        2
176
     1
 40
0.6
176
     1
 40
30.0
176
     1
 62
     7
420
 16777215
176
     1
 90
        0
176
     1
 90
        4
176
     1
 62
     7
176
     1
 62
   257
176
     1
 90
        1
176
     1
 90
        1
176
     1
 40
1.0
176
     1
 90
        8
176
     1
 62
   257
176
     1
 40
1.0
176
     1
 90
        1
176
     1
 90
        6
176
     1
 90
        2
176
     1
 62
     8
420
  7895160
176
     1
 90
        3
176
     1
 90
        0
176
     1
 90
        0
176
     1
290
     0
176
     1
 90
        5
176
     1
 40
0.0
176
     1
 90
        0
176
     1
290
     0
176
     1
290
     1
176
     1
290
     1
176
     1
290
     0
176
     1
290
     0
176
     1
290
     0
176
     1
290
     0
176
     1
290
     0
176
     1
290
     0
176
     1
 90
       50
176
     1
 40
0.0
176
     1
 40
1.0
176
     1
 90
        0
176
     1
 62
    18
420
        0
176
     1
 90
       50
176
     1
 90
        3
176
     1
 62
     5
420
      255
176
     1
290
     0
176
     1
 90
       50
176
     1
 90
       50
176
     1
 90
       50
176
     1
290
     0
176
     1
 90
       50
176
     1
 62
   256
176
     0
 40
1.0
176
     0
 90
        2
176
     1
  1
strokes_ogs.tif
176
     1
290
     0
176
     1
 40
1.0
176
     1
 40
1.0
176
     1
  0
VISUALSTYLE
  5
3D
102
{ACAD_REACTORS
330
29
102
}
330
29
100
AcDbVisualStyle
  2
Shaded with edges
 70
    26
177
     3
291
     0
 70
    58
 90
        2
176
     1
 90
        2
176
     1
 90
        1
176
     1
 90
        2
176
     1
 40
0.6
176
     1
 40
30.0
176
     1
 62
     7
420
 16777215
176
     1
 90
        1
176
     1
 90
        2
176
     1
 62
     7
176
     1
 62
   257
176
     1
 90
        2
176
     1
 90
        1
176
     1
 40
1.0
176
     1
 90
        8
176
     1
 62
   257
176
     1
 40
1.0
176
     1
 90
        1
176
     1
 90
        6
176
     1
 90
        2
176
     1
 62
     7
176
     1
 90
        3
176
     1
 90
        0
176
     1
 90
        0
176
     1
290
     0
176
     1
 90
        5
176
     1
 40
0.0
176
     1
 90
        0
176
     1
290
     0
176
     1
290
     1
176
     1
290
     1
176
     1
290
     0
176
     1
290
     0
176
     1
290
     0
176
     1
290
     0
176
     1
290
     0
176
     1
290
     0
176
     1
 90
       50
176
     1
 40
0.0
176
     1
 40
1.0
176
     1
 90
        0
176
     1
 62
    18
420
        0
176
     1
 90
       50
176
     1
 90
        3
176
     1
 62
     5
420
      255
176
     1
290
     0
176
     1
 90
       50
176
     1
 90
       50
176
     1
 90
       50
176
     1
290
     0
176
     1
 90
       50
176
     1
 62
   256
176
     0
 40
1.0
176
     0
 90
        2
176
     1
  1
strokes_ogs.tif
176
     1
290
     0
176
     1
 40
1.0
176
     1
 40
1.0
176
     1
  0
VISUALSTYLE
  5
3A
102
{ACAD_REACTORS
330
29
102
}
330
29
100
AcDbVisualStyle
  2
Shades of Gray
 70
    23
177
     3
291
     0
 70
    58
 90
        2
176
     1
 90
        2
176
     1
 90
        3
176
     1
 90
        0
176
     1
 40
0.6
176
     1
 40
30.0
176
     1
 62
     7
420
 16777215
176
     1
 90
        2
176
     1
 90
        2
176
     1
 62
     7
176
     1
 62
     7
176
     1
 90
        1
176
     1
 90
        1
176
     1
 40
40.0
176
     1
 90
        8
176
     1
 62
     7
176
     1
 40
1.0
176
     1
 90
        1
176
     1
 90
        6
176
     1
 90
        2
176
     1
 62
     7
176
     1
 90
        3
176
     1
 90
        0
176
     1
 90
        0
176
     1
290
     0
176
     1
 90
        1
176
     1
 40
0.0
176
     1
 90
        0
176
     1
290
     0
176
     1
290
     1
176
     1
290
     1
176
     1
290
     0
176
     1
290
     0
176
     1
290
     0
176
     1
290
     0
176
     1
290
     0
176
     1
290
     0
176
     1
 90
       50
176
     1
 40
0.0
176
     1
 40
1.0
176
     1
 90
        0
176
     1
 62
    18
420
        0
176
     1
 90
       50
176
     1
 90
        3
176
     1
 62
     5
420
      255
176
     1
290
     0
176
     1
 90
       50
176
     1
 90
       50
176
     1
 90
       50
176
     1
290
     0
176
     1
 90
       50
176
     1
 62
   256
176
     0
 40
1.0
176
     0
 90
        2
176
     1
  1
strokes_ogs.tif
176
     1
290
     0
176
     1
 40
1.0
176
     1
 40
1.0
176
     1
  0
VISUALSTYLE
  5
3B
102
{ACAD_REACTORS
330
29
102
}
330
29
100
AcDbVisualStyle
  2
Sketchy
 70
    24
177
     3
291
     0
 70
    58
 90
        1
176
     1
 90
        2
176
     1
 90
        2
176
     1
 90
        0
176
     1
 40
0.6
176
     1
 40
30.0
176
     1
 62
     7
420
 16777215
176
     1
 90
        2
176
     1
 90
        2
176
     1
 62
     7
176
     1
 62
     7
176
     1
 90
        1
176
     1
 90
        1
176
     1
 40
40.0
176
     1
 90
       11
176
     1
 62
     7
176
     1
 40
1.0
176
     1
 90
        1
176
     1
 90
        6
176
     1
 90
        2
176
     1
 62
     7
176
     1
 90
        6
176
     1
 90
        0
176
     1
 90
        0
176
     1
290
     0
176
     1
 90
        1
176
     1
 40
0.0
176
     1
 90
        0
176
     1
290
     0
176
     1
290
     1
176
     1
290
     1
176
     1
290
     0
176
     1
290
     0
176
     1
290
     0
176
     1
290
     0
176
     1
290
     0
176
     1
290
     0
176
     1
 90
       50
176
     1
 40
0.0
176
     1
 40
1.0
176
     1
 90
        0
176
     1
 62
    18
420
        0
176
     1
 90
       50
176
     1
 90
        3
176
     1
 62
     5
420
      255
176
     1
290
     0
176
     1
 90
       50
176
     1
 90
       50
176
     1
 90
       50
176
     1
290
     0
176
     1
 90
       50
176
     1
 62
   256
176
     0
 40
1.0
176
     0
 90
        2
176
     1
  1
strokes_ogs.tif
176
     1
290
     0
176
     1
 40
1.0
176
     1
 40
1.0
176
     1
  0
VISUALSTYLE
  5
36
102
{ACAD_REACTORS
330
29
102
}
330
29
100
AcDbVisualStyle
  2
Thicken
 70
    13
177
     3
291
     1
 70
    58
 90
        2
176
     1
 90
        2
176
     1
 90
        0
176
     1
 90
        0
176
     1
 40
0.6
176
     1
 40
30.0
176
     1
 62
     7
420
 16777215
176
     1
 90
        1
176
     1
 90
        4
176
     1
 62
     7
176
     1
 62
   257
176
     1
 90
        1
176
     1
 90
        1
176
     1
 40
1.0
176
     1
 90
       12
176
     1
 62
     7
176
     1
 40
1.0
176
     1
 90
        1
176
     1
 90
        6
176
     1
 90
        2
176
     1
 62
     7
176
     1
 90
        5
176
     1
 90
        0
176
     1
 90
        0
176
     1
290
     0
176
     1
 90
        1
176
     1
 40
0.0
176
     1
 90
        0
176
     1
290
     0
176
     1
290
     1
176
     1
290
     1
176
     1
290
     0
176
     1
290
     0
176
     1
290
     0
176
     1
290
     0
176
     1
290
     0
176
     1
290
     0
176
     1
 90
       50
176
     1
 40
0.0
176
     1
 40
1.0
176
     1
 90
        0
176
     1
 62
    18
420
        0
176
     1
 90
       50
176
     1
 90
        3
176
     1
 62
     5
420
      255
176
     1
290
     0
176
     1
 90
       50
176
     1
 90
       50
176
     1
 90
       50
176
     1
290
     0
176
     1
 90
       50
176
     1
 62
   256
176
     0
 40
1.0
176
     0
 90
        2
176
     1
  1
strokes_ogs.tif
176
     1
290
     0
176
     1
 40
1.0
176
     1
 40
1.0
176
     1
  0
VISUALSTYLE
  5
30
102
{ACAD_REACTORS
330
29
102
}
330
29
100
AcDbVisualStyle
  2
Wireframe
 70
     5
177
     3
291
     0
 70
    58
 90
        0
176
     1
 90
        2
176
     1
 90
        0
176
     1
 90
        0
176
     1
 40
0.6
176
     1
 40
30.0
176
     1
 62
     7
420
 16777215
176
     1
 90
        1
176
     1
 90
        4
176
     1
 62
     7
176
     1
 62
   257
176
     1
 90
        1
176
     1
 90
        1
176
     1
 40
1.0
176
     1
 90
        0
176
     1
 62
   257
176
     1
 40
1.0
176
     1
 90
        1
176
     1
 90
        6
176
     1
 90
        2
176
     1
 62
     7
176
     1
 90
        3
176
     1
 90
        0
176
     1
 90
        0
176
     1
290
     0
176
     1
 90
        1
176
     1
 40
0.0
176
     1
 90
        0
176
     1
290
     0
176
     1
290
     1
176
     1
290
     1
176
     1
290
     0
176
     1
290
     0
176
     1
290
     0
176
     1
290
     0
176
     1
290
     0
176
     1
290
     0
176
     1
 90
       50
176
     1
 40
0.0
176
     1
 40
1.0
176
     1
 90
        0
176
     1
 62
    18
420
        0
176
     1
 90
       50
176
     1
 90
        3
176
     1
 62
     5
420
      255
176
     1
290
     0
176
     1
 90
       50
176
     1
 90
       50
176
     1
 90
       50
176
     1
290
     0
176
     1
 90
       50
176
     1
 62
   256
176
     0
 40
1.0
176
     0
 90
        2
176
     1
  1
strokes_ogs.tif
176
     1
290
     0
176
     1
 40
1.0
176
     1
 40
1.0
176
     1
  0
VISUALSTYLE
  5
3C
102
{ACAD_REACTORS
330
29
102
}
330
29
100
AcDbVisualStyle
  2
X-Ray
 70
    25
177
     3
291
     0
 70
    58
 90
        2
176
     1
 90
        2
176
     1
 90
        1
176
     1
 90
        1
176
     1
 40
0.5
176
     1
 40
30.0
176
     1
 62
     7
420
 16777215
176
     1
 90
        1
176
     1
 90
        0
176
     1
 62
     7
176
     1
 62
   257
176
     1
 90
        1
176
     1
 90
        1
176
     1
 40
1.0
176
     1
 90
        8
176
     1
 62
     7
176
     1
 40
1.0
176
     1
 90
        1
176
     1
 90
        6
176
     1
 90
        2
176
     1
 62
     7
176
     1
 90
        3
176
     1
 90
        0
176
     1
 90
        0
176
     1
290
     0
176
     1
 90
       13
176
     1
 40
0.0
176
     1
 90
        0
176
     1
290
     0
176
     1
290
     1
176
     1
290
     1
176
     1
290
     0
176
     1
290
     0
176
     1
290
     0
176
     1
290
     0
176
     1
290
     0
176
     1
290
     0
176
     1
 90
       50
176
     1
 40
0.0
176
     1
 40
1.0
176
     1
 90
        0
176
     1
 62
    18
420
        0
176
     1
 90
       50
176
     1
 90
        3
176
     1
 62
     5
420
      255
176
     1
290
     0
176
     1
 90
       50
176
     1
 90
       50
176
     1
 90
       50
176
     1
290
     0
176
     1
 90
       50
176
     1
 62
   256
176
     0
 40
1.0
176
     0
 90
        2
176
     1
  1
strokes_ogs.tif
176
     1
290
     0
176
     1
 40
1.0
176
     1
 40
1.0
176
     1
  0
DICTIONARYVAR
  5
477
102
{ACAD_REACTORS
330
471
102
}
330
471
100
DictionaryVariables
280
     0
  1
1:1
  0
DICTIONARYVAR
  5
473
102
{ACAD_REACTORS
330
471
102
}
330
471
100
DictionaryVariables
280
     0
  1
STANDARD
  0
DICTIONARYVAR
  5
472
102
{ACAD_REACTORS
330
471
102
}
330
471
100
DictionaryVariables
280
     0
  1
STANDARD
  0
DICTIONARYVAR
  5
474
102
{ACAD_REACTORS
330
471
102
}
330
471
100
DictionaryVariables
280
     0
  1
Imperial24
  0
DICTIONARYVAR
  5
475
102
{ACAD_REACTORS
330
471
102
}
330
471
100
DictionaryVariables
280
     0
  1
Imperial24
  0
DICTIONARYVAR
  5
479
102
{ACAD_REACTORS
330
471
102
}
330
471
100
DictionaryVariables
280
     0
  1
1
  0
DICTIONARYVAR
  5
47A
102
{ACAD_REACTORS
330
471
102
}
330
471
100
DictionaryVariables
280
     0
  1
15
  0
DICTIONARYVAR
  5
478
102
{ACAD_REACTORS
330
471
102
}
330
471
100
DictionaryVariables
280
     0
  1
0
  0
DICTIONARYVAR
  5
476
102
{ACAD_REACTORS
330
471
102
}
330
471
100
DictionaryVariables
280
     0
  1
0
  0
DICTIONARY
  5
1A
330
19
100
AcDbDictionary
280
     1
281
     1
  3
BUMPTILE
360
1C
  3
DIFFUSETILE
360
1B
  3
OPACITYTILE
360
1F
  3
REFLECTIONTILE
360
1E
  3
REFRACTIONTILE
360
20
  3
SPECULARTILE
360
1D
  0
DICTIONARY
  5
12
330
11
100
AcDbDictionary
280
     1
281
     1
  3
BUMPTILE
360
14
  3
DIFFUSETILE
360
13
  3
OPACITYTILE
360
17
  3
REFLECTIONTILE
360
16
  3
REFRACTIONTILE
360
18
  3
SPECULARTILE
360
15
  0
DICTIONARY
  5
22
330
21
100
AcDbDictionary
280
     1
281
     1
  3
BUMPTILE
360
24
  3
DIFFUSETILE
360
23
  3
OPACITYTILE
360
27
  3
REFLECTIONTILE
360
26
  3
REFRACTIONTILE
360
28
  3
SPECULARTILE
360
25
  0
DICTIONARY
  5
47B
330
64
100
AcDbDictionary
280
     1
281
     1
  3
ACAD_ROUNDTRIP_2008_TABLESTYLE_CELLSTYLEMAP
360
47C
  0
XRECORD
  5
1C
102
{ACAD_REACTORS
330
1A
102
}
330
1A
100
AcDbXrecord
280
     1
270
     1
271
     1
  0
XRECORD
  5
1B
102
{ACAD_REACTORS
330
1A
102
}
330
1A
100
AcDbXrecord
280
     1
270
     1
271
     1
  0
XRECORD
  5
1F
102
{ACAD_REACTORS
330
1A
102
}
330
1A
100
AcDbXrecord
280
     1
270
     1
271
     1
  0
XRECORD
  5
1E
102
{ACAD_REACTORS
330
1A
102
}
330
1A
100
AcDbXrecord
280
     1
270
     1
271
     1
  0
XRECORD
  5
20
102
{ACAD_REACTORS
330
1A
102
}
330
1A
100
AcDbXrecord
280
     1
270
     1
271
     1
  0
XRECORD
  5
1D
102
{ACAD_REACTORS
330
1A
102
}
330
1A
100
AcDbXrecord
280
     1
270
     1
271
     1
  0
XRECORD
  5
14
102
{ACAD_REACTORS
330
12
102
}
330
12
100
AcDbXrecord
280
     1
270
     1
271
     1
  0
XRECORD
  5
13
102
{ACAD_REACTORS
330
12
102
}
330
12
100
AcDbXrecord
280
     1
270
     1
271
     1
  0
XRECORD
  5
17
102
{ACAD_REACTORS
330
12
102
}
330
12
100
AcDbXrecord
280
     1
270
     1
271
     1
  0
XRECORD
  5
16
102
{ACAD_REACTORS
330
12
102
}
330
12
100
AcDbXrecord
280
     1
270
     1
271
     1
  0
XRECORD
  5
18
102
{ACAD_REACTORS
330
12
102
}
330
12
100
AcDbXrecord
280
     1
270
     1
271
     1
  0
XRECORD
  5
15
102
{ACAD_REACTORS
330
12
102
}
330
12
100
AcDbXrecord
280
     1
270
     1
271
     1
  0
XRECORD
  5
24
102
{ACAD_REACTORS
330
22
102
}
330
22
100
AcDbXrecord
280
     1
270
     1
271
     1
  0
XRECORD
  5
23
102
{ACAD_REACTORS
330
22
102
}
330
22
100
AcDbXrecord
280
     1
270
     1
271
     1
  0
XRECORD
  5
27
102
{ACAD_REACTORS
330
22
102
}
330
22
100
AcDbXrecord
280
     1
270
     1
271
     1
  0
XRECORD
  5
26
102
{ACAD_REACTORS
330
22
102
}
330
22
100
AcDbXrecord
280
     1
270
     1
271
     1
  0
XRECORD
  5
28
102
{ACAD_REACTORS
330
22
102
}
330
22
100
AcDbXrecord
280
     1
270
     1
271
     1
  0
XRECORD
  5
25
102
{ACAD_REACTORS
330
22
102
}
330
22
100
AcDbXrecord
280
     1
270
     1
271
     1
  0
CELLSTYLEMAP
  5
47C
102
{ACAD_REACTORS
330
47B
102
}
330
47B
100
AcDbCellStyleMap
 90
        3
300
CELLSTYLE
  1
TABLEFORMAT_BEGIN
 90
        5
170
     1
 91
        0
 92
    32768
 62
   257
 93
        1
300
CONTENTFORMAT
  1
CONTENTFORMAT_BEGIN
 90
        0
 91
        0
 92
      512
 93
        0
300

 40
0.0
140
1.0
 94
        5
 62
     0
340
55
144
0.25
309
CONTENTFORMAT_END
171
     0
 94
        0
309
TABLEFORMAT_END
  1
CELLSTYLE_BEGIN
 90
        1
 91
        1
300
_TITLE
309
CELLSTYLE_END
300
CELLSTYLE
  1
TABLEFORMAT_BEGIN
 90
        5
170
     1
 91
        0
 92
        0
 62
   257
 93
        1
300
CONTENTFORMAT
  1
CONTENTFORMAT_BEGIN
 90
        0
 91
        0
 92
      512
 93
        0
300

 40
0.0
140
1.0
 94
        5
 62
     0
340
55
144
0.18
309
CONTENTFORMAT_END
171
     0
 94
        0
309
TABLEFORMAT_END
  1
CELLSTYLE_BEGIN
 90
        2
 91
        1
300
_HEADER
309
CELLSTYLE_END
300
CELLSTYLE
  1
TABLEFORMAT_BEGIN
 90
        5
170
     1
 91
        0
 92
        0
 62
   257
 93
        1
300
CONTENTFORMAT
  1
CONTENTFORMAT_BEGIN
 90
        0
 91
        0
 92
      512
 93
        0
300

 40
0.0
140
1.0
 94
        2
 62
     0
340
55
144
0.18
309
CONTENTFORMAT_END
171
     0
 94
        0
309
TABLEFORMAT_END
  1
CELLSTYLE_BEGIN
 90
        3
 91
        2
300
_DATA
309
CELLSTYLE_END
  0
ENDSEC
  0
EOF
